ISO-10303-21;
HEADER;
/* Generated by software containing ST-Developer
 * from STEP Tools, Inc. (www.steptools.com) 
 */

FILE_DESCRIPTION(
/* description */ ('4-WAY POSITIONING RECEIVER'),
/* implementation_level */ '2;1');

FILE_NAME(
/* name */ 
'I:\\E&E\\Standards\\Lockout Pins\\Revceiver Blocks\\Step Files\\ALP25
-PR4.stp',
/* time_stamp */ '2019-03-05T17:49:55-05:00',
/* author */ ('Avelyn'),
/* organization */ (''),
/* preprocessor_version */ 'ST-DEVELOPER v17',
/* originating_system */ 'Autodesk Inventor 2018',
/* authorisation */ '');

FILE_SCHEMA (('AUTOMOTIVE_DESIGN { 1 0 10303 214 3 1 1 }'));
ENDSEC;

DATA;
#10=MECHANICAL_DESIGN_GEOMETRIC_PRESENTATION_REPRESENTATION('',(#13),#442);
#11=SHAPE_REPRESENTATION_RELATIONSHIP('SRR','None',#449,#12);
#12=ADVANCED_BREP_SHAPE_REPRESENTATION('',(#14),#441);
#13=STYLED_ITEM('',(#458),#14);
#14=MANIFOLD_SOLID_BREP('Solid1',#240);
#15=FACE_BOUND('',#57,.T.);
#16=FACE_BOUND('',#58,.T.);
#17=FACE_BOUND('',#59,.T.);
#18=FACE_BOUND('',#60,.T.);
#19=FACE_BOUND('',#61,.T.);
#20=FACE_BOUND('',#63,.T.);
#21=FACE_BOUND('',#64,.T.);
#22=FACE_BOUND('',#65,.T.);
#23=FACE_BOUND('',#66,.T.);
#24=FACE_BOUND('',#67,.T.);
#25=FACE_BOUND('',#70,.T.);
#26=PLANE('',#287);
#27=PLANE('',#290);
#28=PLANE('',#293);
#29=CYLINDRICAL_SURFACE('',#267,6.35);
#30=CYLINDRICAL_SURFACE('',#268,5.25);
#31=CYLINDRICAL_SURFACE('',#272,5.25);
#32=CYLINDRICAL_SURFACE('',#276,5.25);
#33=CYLINDRICAL_SURFACE('',#280,5.25);
#34=CYLINDRICAL_SURFACE('',#284,15.);
#35=CYLINDRICAL_SURFACE('',#292,34.);
#36=FACE_OUTER_BOUND('',#48,.T.);
#37=FACE_OUTER_BOUND('',#49,.T.);
#38=FACE_OUTER_BOUND('',#50,.T.);
#39=FACE_OUTER_BOUND('',#51,.T.);
#40=FACE_OUTER_BOUND('',#52,.T.);
#41=FACE_OUTER_BOUND('',#53,.T.);
#42=FACE_OUTER_BOUND('',#54,.T.);
#43=FACE_OUTER_BOUND('',#55,.T.);
#44=FACE_OUTER_BOUND('',#56,.T.);
#45=FACE_OUTER_BOUND('',#62,.T.);
#46=FACE_OUTER_BOUND('',#68,.T.);
#47=FACE_OUTER_BOUND('',#69,.T.);
#48=EDGE_LOOP('',(#164,#165,#166,#167,#168));
#49=EDGE_LOOP('',(#169,#170,#171,#172));
#50=EDGE_LOOP('',(#173,#174,#175,#176,#177));
#51=EDGE_LOOP('',(#178,#179,#180,#181,#182));
#52=EDGE_LOOP('',(#183,#184,#185,#186,#187));
#53=EDGE_LOOP('',(#188,#189,#190,#191,#192));
#54=EDGE_LOOP('',(#193,#194,#195,#196,#197));
#55=EDGE_LOOP('',(#198,#199,#200,#201));
#56=EDGE_LOOP('',(#202,#203));
#57=EDGE_LOOP('',(#204));
#58=EDGE_LOOP('',(#205));
#59=EDGE_LOOP('',(#206));
#60=EDGE_LOOP('',(#207));
#61=EDGE_LOOP('',(#208));
#62=EDGE_LOOP('',(#209));
#63=EDGE_LOOP('',(#210));
#64=EDGE_LOOP('',(#211,#212));
#65=EDGE_LOOP('',(#213,#214));
#66=EDGE_LOOP('',(#215,#216));
#67=EDGE_LOOP('',(#217,#218));
#68=EDGE_LOOP('',(#219,#220,#221,#222,#223));
#69=EDGE_LOOP('',(#224));
#70=EDGE_LOOP('',(#225));
#71=LINE('',#378,#80);
#72=LINE('',#386,#81);
#73=LINE('',#389,#82);
#74=LINE('',#396,#83);
#75=LINE('',#404,#84);
#76=LINE('',#412,#85);
#77=LINE('',#420,#86);
#78=LINE('',#426,#87);
#79=LINE('',#437,#88);
#80=VECTOR('',#300,11.5);
#81=VECTOR('',#309,11.5);
#82=VECTOR('',#314,6.35);
#83=VECTOR('',#321,5.25);
#84=VECTOR('',#330,5.25);
#85=VECTOR('',#339,5.25);
#86=VECTOR('',#348,5.25);
#87=VECTOR('',#355,15.);
#88=VECTOR('',#370,34.);
#89=CIRCLE('',#261,11.5);
#90=CIRCLE('',#262,6.35);
#91=CIRCLE('',#263,6.35);
#92=CIRCLE('',#265,11.5);
#93=CIRCLE('',#266,6.35);
#94=CIRCLE('',#269,5.25);
#95=CIRCLE('',#270,5.25);
#96=CIRCLE('',#271,5.25);
#97=CIRCLE('',#273,5.25);
#98=CIRCLE('',#274,5.25);
#99=CIRCLE('',#275,5.25);
#100=CIRCLE('',#277,5.25);
#101=CIRCLE('',#278,5.25);
#102=CIRCLE('',#279,5.25);
#103=CIRCLE('',#281,5.25);
#104=CIRCLE('',#282,5.25);
#105=CIRCLE('',#283,5.25);
#106=CIRCLE('',#285,15.);
#107=CIRCLE('',#286,15.);
#108=CIRCLE('',#288,34.);
#109=CIRCLE('',#289,34.);
#110=CIRCLE('',#291,34.);
#111=VERTEX_POINT('',#375);
#112=VERTEX_POINT('',#377);
#113=VERTEX_POINT('',#379);
#114=VERTEX_POINT('',#383);
#115=VERTEX_POINT('',#385);
#116=VERTEX_POINT('',#391);
#117=VERTEX_POINT('',#392);
#118=VERTEX_POINT('',#395);
#119=VERTEX_POINT('',#399);
#120=VERTEX_POINT('',#400);
#121=VERTEX_POINT('',#403);
#122=VERTEX_POINT('',#407);
#123=VERTEX_POINT('',#408);
#124=VERTEX_POINT('',#411);
#125=VERTEX_POINT('',#415);
#126=VERTEX_POINT('',#416);
#127=VERTEX_POINT('',#419);
#128=VERTEX_POINT('',#423);
#129=VERTEX_POINT('',#425);
#130=VERTEX_POINT('',#429);
#131=VERTEX_POINT('',#430);
#132=VERTEX_POINT('',#434);
#133=EDGE_CURVE('',#111,#111,#89,.T.);
#134=EDGE_CURVE('',#111,#112,#71,.T.);
#135=EDGE_CURVE('',#113,#112,#90,.T.);
#136=EDGE_CURVE('',#112,#113,#91,.T.);
#137=EDGE_CURVE('',#114,#114,#92,.T.);
#138=EDGE_CURVE('',#114,#115,#72,.T.);
#139=EDGE_CURVE('',#115,#115,#93,.T.);
#140=EDGE_CURVE('',#113,#115,#73,.T.);
#141=EDGE_CURVE('',#116,#117,#94,.T.);
#142=EDGE_CURVE('',#117,#116,#95,.T.);
#143=EDGE_CURVE('',#117,#118,#74,.T.);
#144=EDGE_CURVE('',#118,#118,#96,.T.);
#145=EDGE_CURVE('',#119,#120,#97,.T.);
#146=EDGE_CURVE('',#120,#119,#98,.T.);
#147=EDGE_CURVE('',#120,#121,#75,.T.);
#148=EDGE_CURVE('',#121,#121,#99,.T.);
#149=EDGE_CURVE('',#122,#123,#100,.T.);
#150=EDGE_CURVE('',#123,#122,#101,.T.);
#151=EDGE_CURVE('',#123,#124,#76,.T.);
#152=EDGE_CURVE('',#124,#124,#102,.T.);
#153=EDGE_CURVE('',#125,#126,#103,.T.);
#154=EDGE_CURVE('',#126,#125,#104,.T.);
#155=EDGE_CURVE('',#126,#127,#77,.T.);
#156=EDGE_CURVE('',#127,#127,#105,.T.);
#157=EDGE_CURVE('',#128,#128,#106,.T.);
#158=EDGE_CURVE('',#128,#129,#78,.T.);
#159=EDGE_CURVE('',#129,#129,#107,.T.);
#160=EDGE_CURVE('',#130,#131,#108,.T.);
#161=EDGE_CURVE('',#131,#130,#109,.T.);
#162=EDGE_CURVE('',#132,#132,#110,.T.);
#163=EDGE_CURVE('',#131,#132,#79,.T.);
#164=ORIENTED_EDGE('',*,*,#133,.F.);
#165=ORIENTED_EDGE('',*,*,#134,.T.);
#166=ORIENTED_EDGE('',*,*,#135,.F.);
#167=ORIENTED_EDGE('',*,*,#136,.F.);
#168=ORIENTED_EDGE('',*,*,#134,.F.);
#169=ORIENTED_EDGE('',*,*,#137,.F.);
#170=ORIENTED_EDGE('',*,*,#138,.T.);
#171=ORIENTED_EDGE('',*,*,#139,.F.);
#172=ORIENTED_EDGE('',*,*,#138,.F.);
#173=ORIENTED_EDGE('',*,*,#135,.T.);
#174=ORIENTED_EDGE('',*,*,#136,.T.);
#175=ORIENTED_EDGE('',*,*,#140,.T.);
#176=ORIENTED_EDGE('',*,*,#139,.T.);
#177=ORIENTED_EDGE('',*,*,#140,.F.);
#178=ORIENTED_EDGE('',*,*,#141,.F.);
#179=ORIENTED_EDGE('',*,*,#142,.F.);
#180=ORIENTED_EDGE('',*,*,#143,.T.);
#181=ORIENTED_EDGE('',*,*,#144,.F.);
#182=ORIENTED_EDGE('',*,*,#143,.F.);
#183=ORIENTED_EDGE('',*,*,#145,.F.);
#184=ORIENTED_EDGE('',*,*,#146,.F.);
#185=ORIENTED_EDGE('',*,*,#147,.T.);
#186=ORIENTED_EDGE('',*,*,#148,.F.);
#187=ORIENTED_EDGE('',*,*,#147,.F.);
#188=ORIENTED_EDGE('',*,*,#149,.F.);
#189=ORIENTED_EDGE('',*,*,#150,.F.);
#190=ORIENTED_EDGE('',*,*,#151,.T.);
#191=ORIENTED_EDGE('',*,*,#152,.F.);
#192=ORIENTED_EDGE('',*,*,#151,.F.);
#193=ORIENTED_EDGE('',*,*,#153,.F.);
#194=ORIENTED_EDGE('',*,*,#154,.F.);
#195=ORIENTED_EDGE('',*,*,#155,.T.);
#196=ORIENTED_EDGE('',*,*,#156,.F.);
#197=ORIENTED_EDGE('',*,*,#155,.F.);
#198=ORIENTED_EDGE('',*,*,#157,.F.);
#199=ORIENTED_EDGE('',*,*,#158,.T.);
#200=ORIENTED_EDGE('',*,*,#159,.T.);
#201=ORIENTED_EDGE('',*,*,#158,.F.);
#202=ORIENTED_EDGE('',*,*,#160,.F.);
#203=ORIENTED_EDGE('',*,*,#161,.F.);
#204=ORIENTED_EDGE('',*,*,#144,.T.);
#205=ORIENTED_EDGE('',*,*,#148,.T.);
#206=ORIENTED_EDGE('',*,*,#152,.T.);
#207=ORIENTED_EDGE('',*,*,#156,.T.);
#208=ORIENTED_EDGE('',*,*,#159,.F.);
#209=ORIENTED_EDGE('',*,*,#162,.F.);
#210=ORIENTED_EDGE('',*,*,#133,.T.);
#211=ORIENTED_EDGE('',*,*,#141,.T.);
#212=ORIENTED_EDGE('',*,*,#142,.T.);
#213=ORIENTED_EDGE('',*,*,#145,.T.);
#214=ORIENTED_EDGE('',*,*,#146,.T.);
#215=ORIENTED_EDGE('',*,*,#149,.T.);
#216=ORIENTED_EDGE('',*,*,#150,.T.);
#217=ORIENTED_EDGE('',*,*,#153,.T.);
#218=ORIENTED_EDGE('',*,*,#154,.T.);
#219=ORIENTED_EDGE('',*,*,#160,.T.);
#220=ORIENTED_EDGE('',*,*,#163,.T.);
#221=ORIENTED_EDGE('',*,*,#162,.T.);
#222=ORIENTED_EDGE('',*,*,#163,.F.);
#223=ORIENTED_EDGE('',*,*,#161,.T.);
#224=ORIENTED_EDGE('',*,*,#157,.T.);
#225=ORIENTED_EDGE('',*,*,#137,.T.);
#226=CONICAL_SURFACE('',#260,11.5,0.523598775598299);
#227=CONICAL_SURFACE('',#264,11.5,0.523598775598299);
#228=ADVANCED_FACE('',(#36),#226,.F.);
#229=ADVANCED_FACE('',(#37),#227,.F.);
#230=ADVANCED_FACE('',(#38),#29,.F.);
#231=ADVANCED_FACE('',(#39),#30,.F.);
#232=ADVANCED_FACE('',(#40),#31,.F.);
#233=ADVANCED_FACE('',(#41),#32,.F.);
#234=ADVANCED_FACE('',(#42),#33,.F.);
#235=ADVANCED_FACE('',(#43),#34,.T.);
#236=ADVANCED_FACE('',(#44,#15,#16,#17,#18,#19),#26,.T.);
#237=ADVANCED_FACE('',(#45,#20,#21,#22,#23,#24),#27,.T.);
#238=ADVANCED_FACE('',(#46),#35,.T.);
#239=ADVANCED_FACE('',(#47,#25),#28,.F.);
#240=CLOSED_SHELL('',(#228,#229,#230,#231,#232,#233,#234,#235,#236,#237,
#238,#239));
#241=DERIVED_UNIT_ELEMENT(#243,1.);
#242=DERIVED_UNIT_ELEMENT(#444,3.);
#243=(
MASS_UNIT()
NAMED_UNIT(*)
SI_UNIT($,.GRAM.)
);
#244=DERIVED_UNIT((#241,#242));
#245=MEASURE_REPRESENTATION_ITEM('density measure',
POSITIVE_RATIO_MEASURE(7.86),#244);
#246=PROPERTY_DEFINITION_REPRESENTATION(#251,#248);
#247=PROPERTY_DEFINITION_REPRESENTATION(#252,#249);
#248=REPRESENTATION('material name',(#250),#441);
#249=REPRESENTATION('density',(#245),#441);
#250=DESCRIPTIVE_REPRESENTATION_ITEM('1018 HRS','1018 HRS');
#251=PROPERTY_DEFINITION('material property','material name',#451);
#252=PROPERTY_DEFINITION('material property','density of part',#451);
#253=DATE_TIME_ROLE('creation_date');
#254=APPLIED_DATE_AND_TIME_ASSIGNMENT(#255,#253,(#451));
#255=DATE_AND_TIME(#256,#257);
#256=CALENDAR_DATE(2019,2,3);
#257=LOCAL_TIME(14,47,17.,#258);
#258=COORDINATED_UNIVERSAL_TIME_OFFSET(0,0,.BEHIND.);
#259=AXIS2_PLACEMENT_3D('placement',#373,#294,#295);
#260=AXIS2_PLACEMENT_3D('',#374,#296,#297);
#261=AXIS2_PLACEMENT_3D('',#376,#298,#299);
#262=AXIS2_PLACEMENT_3D('',#380,#301,#302);
#263=AXIS2_PLACEMENT_3D('',#381,#303,#304);
#264=AXIS2_PLACEMENT_3D('',#382,#305,#306);
#265=AXIS2_PLACEMENT_3D('',#384,#307,#308);
#266=AXIS2_PLACEMENT_3D('',#387,#310,#311);
#267=AXIS2_PLACEMENT_3D('',#388,#312,#313);
#268=AXIS2_PLACEMENT_3D('',#390,#315,#316);
#269=AXIS2_PLACEMENT_3D('',#393,#317,#318);
#270=AXIS2_PLACEMENT_3D('',#394,#319,#320);
#271=AXIS2_PLACEMENT_3D('',#397,#322,#323);
#272=AXIS2_PLACEMENT_3D('',#398,#324,#325);
#273=AXIS2_PLACEMENT_3D('',#401,#326,#327);
#274=AXIS2_PLACEMENT_3D('',#402,#328,#329);
#275=AXIS2_PLACEMENT_3D('',#405,#331,#332);
#276=AXIS2_PLACEMENT_3D('',#406,#333,#334);
#277=AXIS2_PLACEMENT_3D('',#409,#335,#336);
#278=AXIS2_PLACEMENT_3D('',#410,#337,#338);
#279=AXIS2_PLACEMENT_3D('',#413,#340,#341);
#280=AXIS2_PLACEMENT_3D('',#414,#342,#343);
#281=AXIS2_PLACEMENT_3D('',#417,#344,#345);
#282=AXIS2_PLACEMENT_3D('',#418,#346,#347);
#283=AXIS2_PLACEMENT_3D('',#421,#349,#350);
#284=AXIS2_PLACEMENT_3D('',#422,#351,#352);
#285=AXIS2_PLACEMENT_3D('',#424,#353,#354);
#286=AXIS2_PLACEMENT_3D('',#427,#356,#357);
#287=AXIS2_PLACEMENT_3D('',#428,#358,#359);
#288=AXIS2_PLACEMENT_3D('',#431,#360,#361);
#289=AXIS2_PLACEMENT_3D('',#432,#362,#363);
#290=AXIS2_PLACEMENT_3D('',#433,#364,#365);
#291=AXIS2_PLACEMENT_3D('',#435,#366,#367);
#292=AXIS2_PLACEMENT_3D('',#436,#368,#369);
#293=AXIS2_PLACEMENT_3D('',#438,#371,#372);
#294=DIRECTION('axis',(0.,0.,1.));
#295=DIRECTION('refdir',(1.,0.,0.));
#296=DIRECTION('center_axis',(0.,0.,-1.));
#297=DIRECTION('ref_axis',(1.,0.,0.));
#298=DIRECTION('center_axis',(0.,0.,1.));
#299=DIRECTION('ref_axis',(1.,0.,0.));
#300=DIRECTION('',(0.5,6.12323399573676E-17,0.866025403784439));
#301=DIRECTION('center_axis',(0.,0.,-1.));
#302=DIRECTION('ref_axis',(-1.,0.,0.));
#303=DIRECTION('center_axis',(0.,0.,-1.));
#304=DIRECTION('ref_axis',(-1.,0.,0.));
#305=DIRECTION('center_axis',(0.,0.,1.));
#306=DIRECTION('ref_axis',(-1.,0.,0.));
#307=DIRECTION('center_axis',(0.,0.,-1.));
#308=DIRECTION('ref_axis',(-1.,0.,0.));
#309=DIRECTION('',(-0.5,6.12323399573676E-17,-0.866025403784439));
#310=DIRECTION('center_axis',(0.,0.,1.));
#311=DIRECTION('ref_axis',(-1.,0.,0.));
#312=DIRECTION('center_axis',(0.,0.,-1.));
#313=DIRECTION('ref_axis',(-1.,0.,0.));
#314=DIRECTION('',(0.,0.,1.));
#315=DIRECTION('center_axis',(0.,0.,-1.));
#316=DIRECTION('ref_axis',(-1.,0.,0.));
#317=DIRECTION('center_axis',(0.,0.,1.));
#318=DIRECTION('ref_axis',(-1.,0.,0.));
#319=DIRECTION('center_axis',(0.,0.,1.));
#320=DIRECTION('ref_axis',(-1.,0.,0.));
#321=DIRECTION('',(0.,0.,1.));
#322=DIRECTION('center_axis',(0.,0.,-1.));
#323=DIRECTION('ref_axis',(-1.,0.,0.));
#324=DIRECTION('center_axis',(0.,0.,-1.));
#325=DIRECTION('ref_axis',(-1.,0.,0.));
#326=DIRECTION('center_axis',(0.,0.,1.));
#327=DIRECTION('ref_axis',(-1.,0.,0.));
#328=DIRECTION('center_axis',(0.,0.,1.));
#329=DIRECTION('ref_axis',(-1.,0.,0.));
#330=DIRECTION('',(0.,0.,1.));
#331=DIRECTION('center_axis',(0.,0.,-1.));
#332=DIRECTION('ref_axis',(-1.,0.,0.));
#333=DIRECTION('center_axis',(0.,0.,-1.));
#334=DIRECTION('ref_axis',(-1.,0.,0.));
#335=DIRECTION('center_axis',(0.,0.,1.));
#336=DIRECTION('ref_axis',(-1.,0.,0.));
#337=DIRECTION('center_axis',(0.,0.,1.));
#338=DIRECTION('ref_axis',(-1.,0.,0.));
#339=DIRECTION('',(0.,0.,1.));
#340=DIRECTION('center_axis',(0.,0.,-1.));
#341=DIRECTION('ref_axis',(-1.,0.,0.));
#342=DIRECTION('center_axis',(0.,0.,-1.));
#343=DIRECTION('ref_axis',(-1.,0.,0.));
#344=DIRECTION('center_axis',(0.,0.,1.));
#345=DIRECTION('ref_axis',(-1.,0.,0.));
#346=DIRECTION('center_axis',(0.,0.,1.));
#347=DIRECTION('ref_axis',(-1.,0.,0.));
#348=DIRECTION('',(0.,0.,1.));
#349=DIRECTION('center_axis',(0.,0.,-1.));
#350=DIRECTION('ref_axis',(-1.,0.,0.));
#351=DIRECTION('center_axis',(0.,0.,1.));
#352=DIRECTION('ref_axis',(1.,0.,0.));
#353=DIRECTION('center_axis',(0.,0.,1.));
#354=DIRECTION('ref_axis',(1.,0.,0.));
#355=DIRECTION('',(0.,0.,-1.));
#356=DIRECTION('center_axis',(0.,0.,1.));
#357=DIRECTION('ref_axis',(1.,0.,0.));
#358=DIRECTION('center_axis',(0.,0.,1.));
#359=DIRECTION('ref_axis',(1.,0.,0.));
#360=DIRECTION('center_axis',(0.,0.,-1.));
#361=DIRECTION('ref_axis',(-1.,0.,0.));
#362=DIRECTION('center_axis',(0.,0.,-1.));
#363=DIRECTION('ref_axis',(-1.,0.,0.));
#364=DIRECTION('center_axis',(0.,0.,-1.));
#365=DIRECTION('ref_axis',(-1.,0.,0.));
#366=DIRECTION('center_axis',(0.,0.,1.));
#367=DIRECTION('ref_axis',(-1.,0.,0.));
#368=DIRECTION('center_axis',(0.,0.,1.));
#369=DIRECTION('ref_axis',(-1.,0.,0.));
#370=DIRECTION('',(0.,0.,-1.));
#371=DIRECTION('center_axis',(0.,0.,-1.));
#372=DIRECTION('ref_axis',(-1.,0.,0.));
#373=CARTESIAN_POINT('',(0.,0.,0.));
#374=CARTESIAN_POINT('Origin',(0.,0.,-12.5));
#375=CARTESIAN_POINT('',(-11.5,1.40834381901946E-15,-12.5));
#376=CARTESIAN_POINT('Origin',(0.,0.,-12.5));
#377=CARTESIAN_POINT('',(-6.35,-7.77650717458569E-16,-3.57993834102027));
#378=CARTESIAN_POINT('',(-11.5,-1.40834381901946E-15,-12.5));
#379=CARTESIAN_POINT('',(6.35,-7.77650717458569E-16,-3.57993834102027));
#380=CARTESIAN_POINT('Origin',(0.,0.,-3.57993834102027));
#381=CARTESIAN_POINT('Origin',(0.,0.,-3.57993834102027));
#382=CARTESIAN_POINT('Origin',(0.,0.,12.5));
#383=CARTESIAN_POINT('',(11.5,1.40834381901946E-15,12.5));
#384=CARTESIAN_POINT('Origin',(0.,0.,12.5));
#385=CARTESIAN_POINT('',(6.35,7.77650717458569E-16,3.57993834102027));
#386=CARTESIAN_POINT('',(11.5,-1.40834381901946E-15,12.5));
#387=CARTESIAN_POINT('Origin',(0.,0.,3.57993834102027));
#388=CARTESIAN_POINT('Origin',(0.,0.,86.8629709700752));
#389=CARTESIAN_POINT('',(6.35,-7.77650717458569E-16,86.8629709700752));
#390=CARTESIAN_POINT('Origin',(25.,0.,86.8629709700752));
#391=CARTESIAN_POINT('',(19.75,0.,-12.5));
#392=CARTESIAN_POINT('',(30.25,-6.42939569552361E-16,-12.5));
#393=CARTESIAN_POINT('Origin',(25.,0.,-12.5));
#394=CARTESIAN_POINT('Origin',(25.,0.,-12.5));
#395=CARTESIAN_POINT('',(30.25,-6.42939569552361E-16,-2.5));
#396=CARTESIAN_POINT('',(30.25,-6.42939569552361E-16,86.8629709700752));
#397=CARTESIAN_POINT('Origin',(25.,0.,-2.5));
#398=CARTESIAN_POINT('Origin',(0.,-25.,86.8629709700752));
#399=CARTESIAN_POINT('',(-5.25,-25.,-12.5));
#400=CARTESIAN_POINT('',(5.25,-25.,-12.5));
#401=CARTESIAN_POINT('Origin',(0.,-25.,-12.5));
#402=CARTESIAN_POINT('Origin',(0.,-25.,-12.5));
#403=CARTESIAN_POINT('',(5.25,-25.,-2.5));
#404=CARTESIAN_POINT('',(5.25,-25.,86.8629709700752));
#405=CARTESIAN_POINT('Origin',(0.,-25.,-2.5));
#406=CARTESIAN_POINT('Origin',(0.,25.,86.8629709700752));
#407=CARTESIAN_POINT('',(-5.25,25.,-12.5));
#408=CARTESIAN_POINT('',(5.25,25.,-12.5));
#409=CARTESIAN_POINT('Origin',(0.,25.,-12.5));
#410=CARTESIAN_POINT('Origin',(0.,25.,-12.5));
#411=CARTESIAN_POINT('',(5.25,25.,-2.5));
#412=CARTESIAN_POINT('',(5.25,25.,86.8629709700752));
#413=CARTESIAN_POINT('Origin',(0.,25.,-2.5));
#414=CARTESIAN_POINT('Origin',(-25.,0.,86.8629709700752));
#415=CARTESIAN_POINT('',(-30.25,0.,-12.5));
#416=CARTESIAN_POINT('',(-19.75,-6.42939569552361E-16,-12.5));
#417=CARTESIAN_POINT('Origin',(-25.,0.,-12.5));
#418=CARTESIAN_POINT('Origin',(-25.,0.,-12.5));
#419=CARTESIAN_POINT('',(-19.75,-6.42939569552361E-16,-2.5));
#420=CARTESIAN_POINT('',(-19.75,-6.42939569552361E-16,86.8629709700752));
#421=CARTESIAN_POINT('Origin',(-25.,0.,-2.5));
#422=CARTESIAN_POINT('Origin',(0.,0.,-2.5));
#423=CARTESIAN_POINT('',(-15.,-1.83697019872103E-15,12.5));
#424=CARTESIAN_POINT('Origin',(0.,0.,12.5));
#425=CARTESIAN_POINT('',(-15.,1.83697019872103E-15,-2.5));
#426=CARTESIAN_POINT('',(-15.,-1.83697019872103E-15,-2.5));
#427=CARTESIAN_POINT('Origin',(0.,0.,-2.5));
#428=CARTESIAN_POINT('Origin',(3.83003588603342E-15,8.7076315656875E-16,
-2.5));
#429=CARTESIAN_POINT('',(-34.,4.163799117101E-15,-2.5));
#430=CARTESIAN_POINT('',(34.,4.163799117101E-15,-2.5));
#431=CARTESIAN_POINT('Origin',(0.,0.,-2.5));
#432=CARTESIAN_POINT('Origin',(0.,0.,-2.5));
#433=CARTESIAN_POINT('Origin',(0.,0.,-12.5));
#434=CARTESIAN_POINT('',(34.,4.163799117101E-15,-12.5));
#435=CARTESIAN_POINT('Origin',(0.,0.,-12.5));
#436=CARTESIAN_POINT('Origin',(0.,0.,0.));
#437=CARTESIAN_POINT('',(34.,4.163799117101E-15,0.));
#438=CARTESIAN_POINT('Origin',(0.,0.,12.5));
#439=UNCERTAINTY_MEASURE_WITH_UNIT(LENGTH_MEASURE(0.01),#443,
'DISTANCE_ACCURACY_VALUE',
'Maximum model space distance between geometric entities at asserted c
onnectivities');
#440=UNCERTAINTY_MEASURE_WITH_UNIT(LENGTH_MEASURE(0.01),#443,
'DISTANCE_ACCURACY_VALUE',
'Maximum model space distance between geometric entities at asserted c
onnectivities');
#441=(
GEOMETRIC_REPRESENTATION_CONTEXT(3)
GLOBAL_UNCERTAINTY_ASSIGNED_CONTEXT((#439))
GLOBAL_UNIT_ASSIGNED_CONTEXT((#443,#446,#445))
REPRESENTATION_CONTEXT('','3D')
);
#442=(
GEOMETRIC_REPRESENTATION_CONTEXT(3)
GLOBAL_UNCERTAINTY_ASSIGNED_CONTEXT((#440))
GLOBAL_UNIT_ASSIGNED_CONTEXT((#443,#446,#445))
REPRESENTATION_CONTEXT('','3D')
);
#443=(
LENGTH_UNIT()
NAMED_UNIT(*)
SI_UNIT(.MILLI.,.METRE.)
);
#444=(
LENGTH_UNIT()
NAMED_UNIT(*)
SI_UNIT(.CENTI.,.METRE.)
);
#445=(
NAMED_UNIT(*)
SI_UNIT($,.STERADIAN.)
SOLID_ANGLE_UNIT()
);
#446=(
NAMED_UNIT(*)
PLANE_ANGLE_UNIT()
SI_UNIT($,.RADIAN.)
);
#447=SHAPE_DEFINITION_REPRESENTATION(#448,#449);
#448=PRODUCT_DEFINITION_SHAPE('',$,#451);
#449=SHAPE_REPRESENTATION('',(#259),#441);
#450=PRODUCT_DEFINITION_CONTEXT('part definition',#455,'design');
#451=PRODUCT_DEFINITION('ALP25-PR4','ALP25-PR4',#452,#450);
#452=PRODUCT_DEFINITION_FORMATION('',$,#457);
#453=PRODUCT_RELATED_PRODUCT_CATEGORY('ALP25-PR4','ALP25-PR4',(#457));
#454=APPLICATION_PROTOCOL_DEFINITION('international standard',
'automotive_design',2009,#455);
#455=APPLICATION_CONTEXT(
'Core Data for Automotive Mechanical Design Process');
#456=PRODUCT_CONTEXT('part definition',#455,'mechanical');
#457=PRODUCT('ALP25-PR4','ALP25-PR4','4-WAY POSITIONING RECEIVER',(#456));
#458=PRESENTATION_STYLE_ASSIGNMENT((#459));
#459=SURFACE_STYLE_USAGE(.BOTH.,#460);
#460=SURFACE_SIDE_STYLE('',(#461));
#461=SURFACE_STYLE_FILL_AREA(#462);
#462=FILL_AREA_STYLE('',(#463));
#463=FILL_AREA_STYLE_COLOUR('',#464);
#464=COLOUR_RGB('',0.0196078431372549,0.0196078431372549,0.0196078431372549);
ENDSEC;
END-ISO-10303-21;
