ISO-10303-21;
HEADER;
FILE_DESCRIPTION((''),'2;1');
FILE_NAME('E157','2000-06-30T12:00:25',(''),(''),'AutoCAD STEP 2000','AutoCAD 2000',', , ');
FILE_SCHEMA(('CONFIG_CONTROL_DESIGN'));
ENDSEC;
DATA;
#8=(NAMED_UNIT(*)PLANE_ANGLE_UNIT()SI_UNIT($,.RADIAN.));
#9=DIMENSIONAL_EXPONENTS(0.0,0.0,0.0,0.0,0.0,0.0,0.0);
#10=PLANE_ANGLE_MEASURE_WITH_UNIT(PLANE_ANGLE_MEASURE(0.017453292500000),#8);
#14=(CONVERSION_BASED_UNIT('DEGREE',#10)NAMED_UNIT(#9)PLANE_ANGLE_UNIT());
#18=(NAMED_UNIT(*)SI_UNIT($,.STERADIAN.)SOLID_ANGLE_UNIT());
#20=DIMENSIONAL_EXPONENTS(1.0,0.0,0.0,0.0,0.0,0.0,0.0);
#24=(LENGTH_UNIT()NAMED_UNIT(*)SI_UNIT(.MILLI.,.METRE.));
#25=LENGTH_MEASURE_WITH_UNIT(LENGTH_MEASURE(25.399999999999999),#24);
#27=(CONVERSION_BASED_UNIT('INCH',#25)LENGTH_UNIT()NAMED_UNIT(#20));
#28=UNCERTAINTY_MEASURE_WITH_UNIT(LENGTH_MEASURE(0.000001000000000),#27,'DISTANCE_ACCURACY_VALUE','');
#33=(GEOMETRIC_REPRESENTATION_CONTEXT(3)GLOBAL_UNCERTAINTY_ASSIGNED_CONTEXT((#28))GLOBAL_UNIT_ASSIGNED_CONTEXT((#14,#18,#27))REPRESENTATION_CONTEXT('None','None'));
#34=APPLICATION_CONTEXT('CONFIGURATION CONTROLLED 3D DESIGNS OF MECHANICAL PARTS AND ASSEMBLIES');
#35=APPLICATION_PROTOCOL_DEFINITION('INTERNATIONAL STANDARD','config_control_design',1995,#34);
#36=MECHANICAL_CONTEXT('3D Mechanical Parts',#34,'mechanical');
#37=PRODUCT('Product','Product','Overall Model',(#36));
#38=PRODUCT_RELATED_PRODUCT_CATEGORY('detail',$,(#37));
#39=PRODUCT_CATEGORY('part',$);
#40=PRODUCT_CATEGORY_RELATIONSHIP('None','None',#39,#38);
#41=PERSON('1','Design','Joe',$,$,$);
#42=ORGANIZATION($,'None','None');
#43=PERSON_AND_ORGANIZATION(#41,#42);
#44=PERSON_AND_ORGANIZATION_ROLE('design_owner');
#45=CC_DESIGN_PERSON_AND_ORGANIZATION_ASSIGNMENT(#43,#44,(#37));
#46=PRODUCT_DEFINITION_FORMATION_WITH_SPECIFIED_SOURCE('None','None',#37,.NOT_KNOWN.);
#47=PERSON('2','Creator','Joe',$,$,$);
#48=ORGANIZATION($,'None','None');
#49=PERSON_AND_ORGANIZATION(#47,#48);
#50=PERSON_AND_ORGANIZATION_ROLE('creator');
#51=CC_DESIGN_PERSON_AND_ORGANIZATION_ASSIGNMENT(#49,#50,(#46));
#52=PERSON('3','Supplier','Joe',$,$,$);
#53=ORGANIZATION($,'None','None');
#54=PERSON_AND_ORGANIZATION(#52,#53);
#55=PERSON_AND_ORGANIZATION_ROLE('design_supplier');
#56=CC_DESIGN_PERSON_AND_ORGANIZATION_ASSIGNMENT(#54,#55,(#46));
#57=APPROVAL_STATUS('approved');
#58=APPROVAL(#57,'None');
#59=PERSON('4','Approver','Joe',$,$,$);
#60=ORGANIZATION($,'None','None');
#61=PERSON_AND_ORGANIZATION(#59,#60);
#62=APPROVAL_ROLE('None');
#63=APPROVAL_PERSON_ORGANIZATION(#61,#58,#62);
#64=COORDINATED_UNIVERSAL_TIME_OFFSET(8,$,.BEHIND.);
#65=CALENDAR_DATE(1996,29,5);
#66=LOCAL_TIME(12,0,0.0,#64);
#67=DATE_AND_TIME(#65,#66);
#68=APPROVAL_DATE_TIME(#67,#58);
#69=CC_DESIGN_APPROVAL(#58,(#46));
#70=SECURITY_CLASSIFICATION_LEVEL('unclassified');
#71=SECURITY_CLASSIFICATION('security','None',#70);
#72=CC_DESIGN_SECURITY_CLASSIFICATION(#71,(#46));
#73=APPROVAL_STATUS('approved');
#74=APPROVAL(#73,'None');
#75=PERSON('5','Approver','Joe',$,$,$);
#76=ORGANIZATION($,'None','None');
#77=PERSON_AND_ORGANIZATION(#75,#76);
#78=APPROVAL_ROLE('None');
#79=APPROVAL_PERSON_ORGANIZATION(#77,#74,#78);
#80=COORDINATED_UNIVERSAL_TIME_OFFSET(8,$,.BEHIND.);
#81=CALENDAR_DATE(1996,29,5);
#82=LOCAL_TIME(12,0,0.0,#80);
#83=DATE_AND_TIME(#81,#82);
#84=APPROVAL_DATE_TIME(#83,#74);
#85=CC_DESIGN_APPROVAL(#74,(#71));
#86=PERSON('6','Classifier','Joe',$,$,$);
#87=ORGANIZATION($,'None','None');
#88=PERSON_AND_ORGANIZATION(#86,#87);
#89=PERSON_AND_ORGANIZATION_ROLE('classification_officer');
#90=CC_DESIGN_PERSON_AND_ORGANIZATION_ASSIGNMENT(#88,#89,(#71));
#91=COORDINATED_UNIVERSAL_TIME_OFFSET(8,$,.BEHIND.);
#92=CALENDAR_DATE(1996,29,5);
#93=LOCAL_TIME(12,0,0.0,#91);
#94=DATE_AND_TIME(#92,#93);
#95=DATE_TIME_ROLE('classification_date');
#96=CC_DESIGN_DATE_AND_TIME_ASSIGNMENT(#94,#95,(#71));
#97=DESIGN_CONTEXT('Design Context',#34,'design');
#98=DOCUMENT_TYPE('cad_filename');
#99=DOCUMENT('None','None','None',#98);
#100=PRODUCT_DEFINITION_WITH_ASSOCIATED_DOCUMENTS('None','None',#46,#97,(#99));
#101=PERSON('7','Creator','Joe',$,$,$);
#102=ORGANIZATION($,'None','None');
#103=PERSON_AND_ORGANIZATION(#101,#102);
#104=PERSON_AND_ORGANIZATION_ROLE('creator');
#105=CC_DESIGN_PERSON_AND_ORGANIZATION_ASSIGNMENT(#103,#104,(#100));
#106=COORDINATED_UNIVERSAL_TIME_OFFSET(8,$,.BEHIND.);
#107=CALENDAR_DATE(1996,29,5);
#108=LOCAL_TIME(12,0,0.0,#106);
#109=DATE_AND_TIME(#107,#108);
#110=DATE_TIME_ROLE('creation_date');
#111=CC_DESIGN_DATE_AND_TIME_ASSIGNMENT(#109,#110,(#100));
#112=APPROVAL_STATUS('approved');
#113=APPROVAL(#112,'None');
#114=PERSON('8','Approver','Joe',$,$,$);
#115=ORGANIZATION($,'None','None');
#116=PERSON_AND_ORGANIZATION(#114,#115);
#117=APPROVAL_ROLE('None');
#118=APPROVAL_PERSON_ORGANIZATION(#116,#113,#117);
#119=COORDINATED_UNIVERSAL_TIME_OFFSET(8,$,.BEHIND.);
#120=CALENDAR_DATE(1996,29,5);
#121=LOCAL_TIME(12,0,0.0,#119);
#122=DATE_AND_TIME(#120,#121);
#123=APPROVAL_DATE_TIME(#122,#113);
#124=CC_DESIGN_APPROVAL(#113,(#100));
#125=CARTESIAN_POINT('NONE',(0.0,0.0,0.0));
#126=DIRECTION('NONE',(0.0,0.0,1.0));
#127=DIRECTION('NONE',(1.0,0.0,0.0));
#128=AXIS2_PLACEMENT_3D('NONE',#125,#126,#127);
#129=SHAPE_REPRESENTATION('SR1',(#128),#33);
#130=PRODUCT_DEFINITION_SHAPE('PDS1','Test Part',#100);
#131=SHAPE_DEFINITION_REPRESENTATION(#130,#129);
#132=CARTESIAN_POINT('',(0.218749999993467,-6.533107E-013,0.0));
#133=DIRECTION('',(0.0,0.0,1.0));
#134=DIRECTION('',(1.0,0.0,0.0));
#135=AXIS2_PLACEMENT_3D('',#132,#133,#134);
#136=SPHERICAL_SURFACE('',#135,3.156250000007187);
#137=CARTESIAN_POINT('',(3.312500000000000,-6.317072E-013,-0.625000000000000));
#138=VERTEX_POINT('',#137);
#139=CARTESIAN_POINT('',(3.312500000000000,-6.317072E-013,0.625000000000000));
#140=VERTEX_POINT('',#139);
#141=CARTESIAN_POINT('',(0.218749999993467,-6.533107E-013,0.0));
#142=DIRECTION('',(0.0,-1.0,0.0));
#143=DIRECTION('',(0.0,0.0,1.0));
#144=AXIS2_PLACEMENT_3D('',#141,#142,#143);
#145=CIRCLE('',#144,3.156250000007187);
#146=EDGE_CURVE('',#138,#140,#145,.T.);
#147=ORIENTED_EDGE('',*,*,#146,.F.);
#148=CARTESIAN_POINT('',(3.312500000000000,0.625000000000000,0.0));
#149=VERTEX_POINT('',#148);
#150=CARTESIAN_POINT('',(3.312500000000000,0.0,0.0));
#151=DIRECTION('',(1.0,0.0,0.0));
#152=DIRECTION('',(0.0,1.0,0.0));
#153=AXIS2_PLACEMENT_3D('',#150,#151,#152);
#154=CIRCLE('',#153,0.625000000000000);
#155=EDGE_CURVE('',#138,#149,#154,.T.);
#156=ORIENTED_EDGE('',*,*,#155,.T.);
#157=CARTESIAN_POINT('',(3.312500000000000,0.0,0.0));
#158=DIRECTION('',(1.0,0.0,0.0));
#159=DIRECTION('',(0.0,1.0,0.0));
#160=AXIS2_PLACEMENT_3D('',#157,#158,#159);
#161=CIRCLE('',#160,0.625000000000000);
#162=EDGE_CURVE('',#149,#140,#161,.T.);
#163=ORIENTED_EDGE('',*,*,#162,.T.);
#164=EDGE_LOOP('',(#147,#156,#163));
#165=FACE_OUTER_BOUND('',#164,.T.);
#166=ADVANCED_FACE('',(#165),#136,.T.);
#167=CARTESIAN_POINT('',(2.968750000000000,0.0,0.0));
#168=DIRECTION('',(1.0,0.0,0.0));
#169=DIRECTION('',(0.0,1.0,0.0));
#170=AXIS2_PLACEMENT_3D('',#167,#168,#169);
#171=CYLINDRICAL_SURFACE('',#170,0.625000000000000);
#172=CARTESIAN_POINT('',(2.382000000000000,0.625000000000000,0.0));
#173=VERTEX_POINT('',#172);
#174=CARTESIAN_POINT('',(2.382000000000000,0.625000000000000,0.0));
#175=DIRECTION('',(1.0,0.0,0.0));
#176=VECTOR('',#175,0.930500000000000);
#177=LINE('',#174,#176);
#178=EDGE_CURVE('',#173,#149,#177,.T.);
#179=ORIENTED_EDGE('',*,*,#178,.F.);
#180=CARTESIAN_POINT('',(2.382000000000000,-0.625000000000000,-4.364354E-015));
#181=VERTEX_POINT('',#180);
#182=CARTESIAN_POINT('',(2.382000000000000,0.0,0.0));
#183=DIRECTION('',(1.0,0.0,0.0));
#184=DIRECTION('',(0.0,1.0,0.0));
#185=AXIS2_PLACEMENT_3D('',#182,#183,#184);
#186=CIRCLE('',#185,0.625000000000000);
#187=EDGE_CURVE('',#173,#181,#186,.T.);
#188=ORIENTED_EDGE('',*,*,#187,.T.);
#189=CARTESIAN_POINT('',(3.312500000000000,-0.625000000000000,-4.364354E-015));
#190=VERTEX_POINT('',#189);
#191=CARTESIAN_POINT('',(3.312500000000000,-0.625000000000000,-4.364354E-015));
#192=DIRECTION('',(-1.0,0.0,0.0));
#193=VECTOR('',#192,0.930500000000000);
#194=LINE('',#191,#193);
#195=EDGE_CURVE('',#190,#181,#194,.T.);
#196=ORIENTED_EDGE('',*,*,#195,.F.);
#197=CARTESIAN_POINT('',(3.312500000000000,0.0,0.0));
#198=DIRECTION('',(1.0,0.0,0.0));
#199=DIRECTION('',(0.0,1.0,0.0));
#200=AXIS2_PLACEMENT_3D('',#197,#198,#199);
#201=CIRCLE('',#200,0.625000000000000);
#202=EDGE_CURVE('',#140,#190,#201,.T.);
#203=ORIENTED_EDGE('',*,*,#202,.F.);
#204=ORIENTED_EDGE('',*,*,#162,.F.);
#205=EDGE_LOOP('',(#179,#188,#196,#203,#204));
#206=FACE_OUTER_BOUND('',#205,.T.);
#207=ADVANCED_FACE('',(#206),#171,.T.);
#208=CARTESIAN_POINT('',(2.062500000000000,0.0,0.0));
#209=DIRECTION('',(1.0,0.0,0.0));
#210=DIRECTION('',(0.0,1.0,0.0));
#211=AXIS2_PLACEMENT_3D('',#208,#209,#210);
#212=CYLINDRICAL_SURFACE('',#211,0.375000000000000);
#213=CARTESIAN_POINT('',(1.500000000000000,0.375000000000000,0.0));
#214=VERTEX_POINT('',#213);
#215=CARTESIAN_POINT('',(2.382000000000000,0.375000000000000,2.618613E-015));
#216=VERTEX_POINT('',#215);
#217=CARTESIAN_POINT('',(1.500000000000000,0.375000000000000,0.0));
#218=DIRECTION('',(1.0,0.0,0.0));
#219=VECTOR('',#218,0.882000000000000);
#220=LINE('',#217,#219);
#221=EDGE_CURVE('',#214,#216,#220,.T.);
#222=ORIENTED_EDGE('',*,*,#221,.F.);
#223=CARTESIAN_POINT('',(1.500000000000000,-0.375000000000000,-2.618613E-015));
#224=VERTEX_POINT('',#223);
#225=CARTESIAN_POINT('',(1.500000000000000,0.0,0.0));
#226=DIRECTION('',(1.0,0.0,0.0));
#227=DIRECTION('',(0.0,1.0,0.0));
#228=AXIS2_PLACEMENT_3D('',#225,#226,#227);
#229=CIRCLE('',#228,0.375000000000000);
#230=EDGE_CURVE('',#214,#224,#229,.T.);
#231=ORIENTED_EDGE('',*,*,#230,.T.);
#232=CARTESIAN_POINT('',(2.382000000000000,-0.375000000000000,-2.618613E-015));
#233=VERTEX_POINT('',#232);
#234=CARTESIAN_POINT('',(2.382000000000000,-0.375000000000000,-2.618613E-015));
#235=DIRECTION('',(-1.0,0.0,0.0));
#236=VECTOR('',#235,0.882000000000000);
#237=LINE('',#234,#236);
#238=EDGE_CURVE('',#233,#224,#237,.T.);
#239=ORIENTED_EDGE('',*,*,#238,.F.);
#240=CARTESIAN_POINT('',(2.382000000000000,0.0,0.0));
#241=DIRECTION('',(-1.0,0.0,0.0));
#242=DIRECTION('',(0.0,1.0,0.0));
#243=AXIS2_PLACEMENT_3D('',#240,#241,#242);
#244=CIRCLE('',#243,0.375000000000000);
#245=EDGE_CURVE('',#233,#216,#244,.T.);
#246=ORIENTED_EDGE('',*,*,#245,.T.);
#247=EDGE_LOOP('',(#222,#231,#239,#246));
#248=FACE_OUTER_BOUND('',#247,.T.);
#249=ADVANCED_FACE('',(#248),#212,.T.);
#250=CARTESIAN_POINT('',(0.500000000000000,0.0,0.0));
#251=DIRECTION('',(1.0,0.0,0.0));
#252=DIRECTION('',(0.0,1.0,0.0));
#253=AXIS2_PLACEMENT_3D('',#250,#251,#252);
#254=CYLINDRICAL_SURFACE('',#253,0.375000000000000);
#255=CARTESIAN_POINT('',(0.031250000000000,0.375000000000000,-2.618613E-015));
#256=VERTEX_POINT('',#255);
#257=CARTESIAN_POINT('',(1.000000000000000,0.375000000000000,0.0));
#258=VERTEX_POINT('',#257);
#259=CARTESIAN_POINT('',(0.031250000000000,0.375000000000000,-2.618613E-015));
#260=DIRECTION('',(1.0,0.0,0.0));
#261=VECTOR('',#260,0.968750000000000);
#262=LINE('',#259,#261);
#263=EDGE_CURVE('',#256,#258,#262,.T.);
#264=ORIENTED_EDGE('',*,*,#263,.F.);
#265=CARTESIAN_POINT('',(0.031250000000000,-0.375000000000000,-2.618613E-015));
#266=VERTEX_POINT('',#265);
#267=CARTESIAN_POINT('',(0.031250000000000,0.0,0.0));
#268=DIRECTION('',(-1.0,0.0,0.0));
#269=DIRECTION('',(0.0,-1.0,0.0));
#270=AXIS2_PLACEMENT_3D('',#267,#268,#269);
#271=CIRCLE('',#270,0.375000000000000);
#272=EDGE_CURVE('',#266,#256,#271,.T.);
#273=ORIENTED_EDGE('',*,*,#272,.F.);
#274=CARTESIAN_POINT('',(1.000000000000000,-0.375000000000000,-2.618613E-015));
#275=VERTEX_POINT('',#274);
#276=CARTESIAN_POINT('',(1.000000000000000,-0.375000000000000,-2.618613E-015));
#277=DIRECTION('',(-1.0,0.0,0.0));
#278=VECTOR('',#277,0.968750000000000);
#279=LINE('',#276,#278);
#280=EDGE_CURVE('',#275,#266,#279,.T.);
#281=ORIENTED_EDGE('',*,*,#280,.F.);
#282=CARTESIAN_POINT('',(1.000000000000000,0.0,0.0));
#283=DIRECTION('',(1.0,0.0,0.0));
#284=DIRECTION('',(0.0,1.0,0.0));
#285=AXIS2_PLACEMENT_3D('',#282,#283,#284);
#286=CIRCLE('',#285,0.375000000000000);
#287=EDGE_CURVE('',#258,#275,#286,.T.);
#288=ORIENTED_EDGE('',*,*,#287,.F.);
#289=EDGE_LOOP('',(#264,#273,#281,#288));
#290=FACE_OUTER_BOUND('',#289,.T.);
#291=ADVANCED_FACE('',(#290),#254,.T.);
#292=CARTESIAN_POINT('',(0.015625000000000,0.0,0.0));
#293=DIRECTION('',(1.0,0.0,0.0));
#294=DIRECTION('',(0.0,-1.0,0.0));
#295=AXIS2_PLACEMENT_3D('',#292,#293,#294);
#296=CONICAL_SURFACE('',#295,0.359375000000000,45.0);
#297=CARTESIAN_POINT('',(0.0,-0.343750000000000,-2.400395E-015));
#298=VERTEX_POINT('',#297);
#299=CARTESIAN_POINT('',(0.0,-0.343750000000000,-2.400395E-015));
#300=DIRECTION('',(0.707106781186547,-0.707106781186547,-4.937703E-015));
#301=VECTOR('',#300,0.044194173824159);
#302=LINE('',#299,#301);
#303=EDGE_CURVE('',#298,#266,#302,.T.);
#304=ORIENTED_EDGE('',*,*,#303,.F.);
#305=CARTESIAN_POINT('',(0.0,0.343750000000000,-2.400395E-015));
#306=VERTEX_POINT('',#305);
#307=CARTESIAN_POINT('',(0.0,0.0,0.0));
#308=DIRECTION('',(1.0,0.0,0.0));
#309=DIRECTION('',(0.0,-1.0,0.0));
#310=AXIS2_PLACEMENT_3D('',#307,#308,#309);
#311=CIRCLE('',#310,0.343750000000000);
#312=EDGE_CURVE('',#298,#306,#311,.T.);
#313=ORIENTED_EDGE('',*,*,#312,.T.);
#314=CARTESIAN_POINT('',(0.031250000000000,0.375000000000000,-2.618613E-015));
#315=DIRECTION('',(-0.707106781186547,-0.707106781186547,4.937703E-015));
#316=VECTOR('',#315,0.044194173824159);
#317=LINE('',#314,#316);
#318=EDGE_CURVE('',#256,#306,#317,.T.);
#319=ORIENTED_EDGE('',*,*,#318,.F.);
#320=CARTESIAN_POINT('',(0.031250000000000,0.0,0.0));
#321=DIRECTION('',(-1.0,0.0,0.0));
#322=DIRECTION('',(0.0,-1.0,0.0));
#323=AXIS2_PLACEMENT_3D('',#320,#321,#322);
#324=CIRCLE('',#323,0.375000000000000);
#325=EDGE_CURVE('',#256,#266,#324,.T.);
#326=ORIENTED_EDGE('',*,*,#325,.T.);
#327=EDGE_LOOP('',(#304,#313,#319,#326));
#328=FACE_OUTER_BOUND('',#327,.T.);
#329=ADVANCED_FACE('',(#328),#296,.T.);
#330=CARTESIAN_POINT('',(2.382000000000000,0.312500000000000,0.0));
#331=DIRECTION('',(-1.0,0.0,0.0));
#332=DIRECTION('',(0.0,0.0,1.0));
#333=AXIS2_PLACEMENT_3D('',#330,#331,#332);
#334=PLANE('',#333);
#335=ORIENTED_EDGE('',*,*,#187,.F.);
#336=CARTESIAN_POINT('',(2.382000000000000,0.0,0.0));
#337=DIRECTION('',(1.0,0.0,0.0));
#338=DIRECTION('',(0.0,1.0,0.0));
#339=AXIS2_PLACEMENT_3D('',#336,#337,#338);
#340=CIRCLE('',#339,0.625000000000000);
#341=EDGE_CURVE('',#181,#173,#340,.T.);
#342=ORIENTED_EDGE('',*,*,#341,.F.);
#343=EDGE_LOOP('',(#335,#342));
#344=FACE_OUTER_BOUND('',#343,.T.);
#345=ORIENTED_EDGE('',*,*,#245,.F.);
#346=CARTESIAN_POINT('',(2.382000000000000,0.0,0.0));
#347=DIRECTION('',(-1.0,0.0,0.0));
#348=DIRECTION('',(0.0,1.0,0.0));
#349=AXIS2_PLACEMENT_3D('',#346,#347,#348);
#350=CIRCLE('',#349,0.375000000000000);
#351=EDGE_CURVE('',#216,#233,#350,.T.);
#352=ORIENTED_EDGE('',*,*,#351,.F.);
#353=EDGE_LOOP('',(#345,#352));
#354=FACE_BOUND('',#353,.T.);
#355=ADVANCED_FACE('',(#344,#354),#334,.T.);
#356=CARTESIAN_POINT('',(0.999999999999999,0.437500000000000,-0.535508013278810));
#357=DIRECTION('',(0.0,-1.0,0.0));
#358=DIRECTION('',(0.0,0.0,-1.0));
#359=AXIS2_PLACEMENT_3D('',#356,#357,#358);
#360=PLANE('',#359);
#361=CARTESIAN_POINT('',(1.000000000000000,0.437500000000000,-0.242061459137964));
#362=VERTEX_POINT('',#361);
#363=CARTESIAN_POINT('',(1.500000000000000,0.437500000000000,-0.242061459137964));
#364=VERTEX_POINT('',#363);
#365=CARTESIAN_POINT('',(1.000000000000000,0.437500000000000,-0.242061459137964));
#366=DIRECTION('',(1.0,0.0,0.0));
#367=VECTOR('',#366,0.500000000000000);
#368=LINE('',#365,#367);
#369=EDGE_CURVE('',#362,#364,#368,.T.);
#370=ORIENTED_EDGE('',*,*,#369,.F.);
#371=CARTESIAN_POINT('',(1.000000000000000,0.437500000000000,0.242061459137964));
#372=VERTEX_POINT('',#371);
#373=CARTESIAN_POINT('',(1.000000000000000,0.437500000000000,0.242061459137964));
#374=DIRECTION('',(0.0,0.0,-1.0));
#375=VECTOR('',#374,0.484122918275927);
#376=LINE('',#373,#375);
#377=EDGE_CURVE('',#372,#362,#376,.T.);
#378=ORIENTED_EDGE('',*,*,#377,.F.);
#379=CARTESIAN_POINT('',(1.500000000000000,0.437500000000000,0.242061459137964));
#380=VERTEX_POINT('',#379);
#381=CARTESIAN_POINT('',(1.500000000000000,0.437500000000000,0.242061459137964));
#382=DIRECTION('',(-1.0,0.0,0.0));
#383=VECTOR('',#382,0.500000000000000);
#384=LINE('',#381,#383);
#385=EDGE_CURVE('',#380,#372,#384,.T.);
#386=ORIENTED_EDGE('',*,*,#385,.F.);
#387=CARTESIAN_POINT('',(1.500000000000000,0.437500000000000,-0.242061459137964));
#388=DIRECTION('',(0.0,0.0,1.0));
#389=VECTOR('',#388,0.484122918275927);
#390=LINE('',#387,#389);
#391=EDGE_CURVE('',#364,#380,#390,.T.);
#392=ORIENTED_EDGE('',*,*,#391,.F.);
#393=EDGE_LOOP('',(#370,#378,#386,#392));
#394=FACE_OUTER_BOUND('',#393,.T.);
#395=ADVANCED_FACE('',(#394),#360,.F.);
#396=CARTESIAN_POINT('',(1.500000000000000,-0.437500000000000,0.242061459137964));
#397=CARTESIAN_POINT('',(1.500000000000000,-0.437500000000000,-0.242061459137964));
#398=CARTESIAN_POINT('',(1.000000000000000,-0.437500000000000,0.242061459137964));
#399=CARTESIAN_POINT('',(1.000000000000000,-0.437500000000000,-0.242061459137964));
#400=B_SPLINE_SURFACE_WITH_KNOTS('',1,1,((#396,#398),(#397,#399)),.UNSPECIFIED.,.F.,.F.,.U.,(2,2),(2,2),(0.0,0.484122918275927),(0.0,0.500000000000000),.UNSPECIFIED.);
#401=CARTESIAN_POINT('',(1.000000000000000,-0.437500000000000,0.242061459137964));
#402=VERTEX_POINT('',#401);
#403=CARTESIAN_POINT('',(1.500000000000000,-0.437500000000000,0.242061459137964));
#404=VERTEX_POINT('',#403);
#405=CARTESIAN_POINT('',(1.000000000000000,-0.437500000000000,0.242061459137964));
#406=DIRECTION('',(1.0,0.0,0.0));
#407=VECTOR('',#406,0.500000000000000);
#408=LINE('',#405,#407);
#409=EDGE_CURVE('',#402,#404,#408,.T.);
#410=ORIENTED_EDGE('',*,*,#409,.F.);
#411=CARTESIAN_POINT('',(1.000000000000000,-0.437500000000000,-0.242061459137964));
#412=VERTEX_POINT('',#411);
#413=CARTESIAN_POINT('',(1.000000000000000,-0.437500000000000,-0.242061459137964));
#414=DIRECTION('',(0.0,0.0,1.0));
#415=VECTOR('',#414,0.484122918275927);
#416=LINE('',#413,#415);
#417=EDGE_CURVE('',#412,#402,#416,.T.);
#418=ORIENTED_EDGE('',*,*,#417,.F.);
#419=CARTESIAN_POINT('',(1.500000000000000,-0.437500000000000,-0.242061459137964));
#420=VERTEX_POINT('',#419);
#421=CARTESIAN_POINT('',(1.500000000000000,-0.437500000000000,-0.242061459137964));
#422=DIRECTION('',(-1.0,0.0,0.0));
#423=VECTOR('',#422,0.500000000000000);
#424=LINE('',#421,#423);
#425=EDGE_CURVE('',#420,#412,#424,.T.);
#426=ORIENTED_EDGE('',*,*,#425,.F.);
#427=CARTESIAN_POINT('',(1.500000000000000,-0.437500000000000,0.242061459137964));
#428=DIRECTION('',(0.0,0.0,-1.0));
#429=VECTOR('',#428,0.484122918275927);
#430=LINE('',#427,#429);
#431=EDGE_CURVE('',#404,#420,#430,.T.);
#432=ORIENTED_EDGE('',*,*,#431,.F.);
#433=EDGE_LOOP('',(#410,#418,#426,#432));
#434=FACE_OUTER_BOUND('',#433,.T.);
#435=ADVANCED_FACE('',(#434),#400,.F.);
#436=CARTESIAN_POINT('',(1.250000000000000,0.0,0.0));
#437=DIRECTION('',(1.0,0.0,0.0));
#438=DIRECTION('',(0.0,1.0,0.0));
#439=AXIS2_PLACEMENT_3D('',#436,#437,#438);
#440=CYLINDRICAL_SURFACE('',#439,0.500000000000000);
#441=ORIENTED_EDGE('',*,*,#385,.T.);
#442=CARTESIAN_POINT('',(1.000000000000000,0.0,0.0));
#443=DIRECTION('',(1.0,0.0,0.0));
#444=DIRECTION('',(0.0,1.0,0.0));
#445=AXIS2_PLACEMENT_3D('',#442,#443,#444);
#446=CIRCLE('',#445,0.500000000000000);
#447=EDGE_CURVE('',#372,#402,#446,.T.);
#448=ORIENTED_EDGE('',*,*,#447,.T.);
#449=ORIENTED_EDGE('',*,*,#409,.T.);
#450=CARTESIAN_POINT('',(1.500000000000000,0.0,0.0));
#451=DIRECTION('',(1.0,0.0,0.0));
#452=DIRECTION('',(0.0,1.0,0.0));
#453=AXIS2_PLACEMENT_3D('',#450,#451,#452);
#454=CIRCLE('',#453,0.500000000000000);
#455=EDGE_CURVE('',#380,#404,#454,.T.);
#456=ORIENTED_EDGE('',*,*,#455,.F.);
#457=EDGE_LOOP('',(#441,#448,#449,#456));
#458=FACE_OUTER_BOUND('',#457,.T.);
#459=ADVANCED_FACE('',(#458),#440,.T.);
#460=CARTESIAN_POINT('',(1.500000000000000,0.437500000000000,0.0));
#461=DIRECTION('',(1.0,0.0,0.0));
#462=DIRECTION('',(0.0,0.0,-1.0));
#463=AXIS2_PLACEMENT_3D('',#460,#461,#462);
#464=PLANE('',#463);
#465=ORIENTED_EDGE('',*,*,#391,.T.);
#466=ORIENTED_EDGE('',*,*,#455,.T.);
#467=ORIENTED_EDGE('',*,*,#431,.T.);
#468=CARTESIAN_POINT('',(1.500000000000000,0.0,0.0));
#469=DIRECTION('',(1.0,0.0,0.0));
#470=DIRECTION('',(0.0,1.0,0.0));
#471=AXIS2_PLACEMENT_3D('',#468,#469,#470);
#472=CIRCLE('',#471,0.500000000000000);
#473=EDGE_CURVE('',#420,#364,#472,.T.);
#474=ORIENTED_EDGE('',*,*,#473,.T.);
#475=EDGE_LOOP('',(#465,#466,#467,#474));
#476=FACE_OUTER_BOUND('',#475,.T.);
#477=ORIENTED_EDGE('',*,*,#230,.F.);
#478=CARTESIAN_POINT('',(1.500000000000000,0.0,0.0));
#479=DIRECTION('',(1.0,0.0,0.0));
#480=DIRECTION('',(0.0,1.0,0.0));
#481=AXIS2_PLACEMENT_3D('',#478,#479,#480);
#482=CIRCLE('',#481,0.375000000000000);
#483=EDGE_CURVE('',#224,#214,#482,.T.);
#484=ORIENTED_EDGE('',*,*,#483,.F.);
#485=EDGE_LOOP('',(#477,#484));
#486=FACE_BOUND('',#485,.T.);
#487=ADVANCED_FACE('',(#476,#486),#464,.T.);
#488=CARTESIAN_POINT('',(0.015625000000000,0.0,0.0));
#489=DIRECTION('',(1.0,0.0,0.0));
#490=DIRECTION('',(0.0,-1.0,0.0));
#491=AXIS2_PLACEMENT_3D('',#488,#489,#490);
#492=CONICAL_SURFACE('',#491,0.359375000000000,45.0);
#493=ORIENTED_EDGE('',*,*,#303,.T.);
#494=ORIENTED_EDGE('',*,*,#272,.T.);
#495=ORIENTED_EDGE('',*,*,#318,.T.);
#496=CARTESIAN_POINT('',(0.0,0.0,0.0));
#497=DIRECTION('',(1.0,0.0,0.0));
#498=DIRECTION('',(0.0,-1.0,0.0));
#499=AXIS2_PLACEMENT_3D('',#496,#497,#498);
#500=CIRCLE('',#499,0.343750000000000);
#501=EDGE_CURVE('',#306,#298,#500,.T.);
#502=ORIENTED_EDGE('',*,*,#501,.T.);
#503=EDGE_LOOP('',(#493,#494,#495,#502));
#504=FACE_OUTER_BOUND('',#503,.T.);
#505=ADVANCED_FACE('',(#504),#492,.T.);
#506=CARTESIAN_POINT('',(0.0,0.187500000000000,0.0));
#507=DIRECTION('',(-1.0,0.0,0.0));
#508=DIRECTION('',(0.0,0.0,1.0));
#509=AXIS2_PLACEMENT_3D('',#506,#507,#508);
#510=PLANE('',#509);
#511=ORIENTED_EDGE('',*,*,#501,.F.);
#512=ORIENTED_EDGE('',*,*,#312,.F.);
#513=EDGE_LOOP('',(#511,#512));
#514=FACE_OUTER_BOUND('',#513,.T.);
#515=ADVANCED_FACE('',(#514),#510,.T.);
#516=CARTESIAN_POINT('',(0.500000000000000,0.0,0.0));
#517=DIRECTION('',(1.0,0.0,0.0));
#518=DIRECTION('',(0.0,1.0,0.0));
#519=AXIS2_PLACEMENT_3D('',#516,#517,#518);
#520=CYLINDRICAL_SURFACE('',#519,0.375000000000000);
#521=ORIENTED_EDGE('',*,*,#263,.T.);
#522=CARTESIAN_POINT('',(1.000000000000000,0.0,0.0));
#523=DIRECTION('',(1.0,0.0,0.0));
#524=DIRECTION('',(0.0,1.0,0.0));
#525=AXIS2_PLACEMENT_3D('',#522,#523,#524);
#526=CIRCLE('',#525,0.375000000000000);
#527=EDGE_CURVE('',#275,#258,#526,.T.);
#528=ORIENTED_EDGE('',*,*,#527,.F.);
#529=ORIENTED_EDGE('',*,*,#280,.T.);
#530=ORIENTED_EDGE('',*,*,#325,.F.);
#531=EDGE_LOOP('',(#521,#528,#529,#530));
#532=FACE_OUTER_BOUND('',#531,.T.);
#533=ADVANCED_FACE('',(#532),#520,.T.);
#534=CARTESIAN_POINT('',(2.062500000000000,0.0,0.0));
#535=DIRECTION('',(1.0,0.0,0.0));
#536=DIRECTION('',(0.0,1.0,0.0));
#537=AXIS2_PLACEMENT_3D('',#534,#535,#536);
#538=CYLINDRICAL_SURFACE('',#537,0.375000000000000);
#539=ORIENTED_EDGE('',*,*,#221,.T.);
#540=ORIENTED_EDGE('',*,*,#351,.T.);
#541=ORIENTED_EDGE('',*,*,#238,.T.);
#542=ORIENTED_EDGE('',*,*,#483,.T.);
#543=EDGE_LOOP('',(#539,#540,#541,#542));
#544=FACE_OUTER_BOUND('',#543,.T.);
#545=ADVANCED_FACE('',(#544),#538,.T.);
#546=CARTESIAN_POINT('',(2.968750000000000,0.0,0.0));
#547=DIRECTION('',(1.0,0.0,0.0));
#548=DIRECTION('',(0.0,1.0,0.0));
#549=AXIS2_PLACEMENT_3D('',#546,#547,#548);
#550=CYLINDRICAL_SURFACE('',#549,0.625000000000000);
#551=ORIENTED_EDGE('',*,*,#178,.T.);
#552=ORIENTED_EDGE('',*,*,#155,.F.);
#553=CARTESIAN_POINT('',(3.312500000000000,0.0,0.0));
#554=DIRECTION('',(1.0,0.0,0.0));
#555=DIRECTION('',(0.0,1.0,0.0));
#556=AXIS2_PLACEMENT_3D('',#553,#554,#555);
#557=CIRCLE('',#556,0.625000000000000);
#558=EDGE_CURVE('',#190,#138,#557,.T.);
#559=ORIENTED_EDGE('',*,*,#558,.F.);
#560=ORIENTED_EDGE('',*,*,#195,.T.);
#561=ORIENTED_EDGE('',*,*,#341,.T.);
#562=EDGE_LOOP('',(#551,#552,#559,#560,#561));
#563=FACE_OUTER_BOUND('',#562,.T.);
#564=ADVANCED_FACE('',(#563),#550,.T.);
#565=CARTESIAN_POINT('',(0.218749999993467,-6.533107E-013,0.0));
#566=DIRECTION('',(0.0,0.0,1.0));
#567=DIRECTION('',(1.0,0.0,0.0));
#568=AXIS2_PLACEMENT_3D('',#565,#566,#567);
#569=SPHERICAL_SURFACE('',#568,3.156250000007187);
#570=ORIENTED_EDGE('',*,*,#146,.T.);
#571=ORIENTED_EDGE('',*,*,#202,.T.);
#572=ORIENTED_EDGE('',*,*,#558,.T.);
#573=EDGE_LOOP('',(#570,#571,#572));
#574=FACE_OUTER_BOUND('',#573,.T.);
#575=ADVANCED_FACE('',(#574),#569,.T.);
#576=CARTESIAN_POINT('',(1.000000000000000,0.437500000000000,0.0));
#577=DIRECTION('',(-1.0,0.0,0.0));
#578=DIRECTION('',(0.0,0.0,1.0));
#579=AXIS2_PLACEMENT_3D('',#576,#577,#578);
#580=PLANE('',#579);
#581=ORIENTED_EDGE('',*,*,#377,.T.);
#582=CARTESIAN_POINT('',(1.000000000000000,0.0,0.0));
#583=DIRECTION('',(1.0,0.0,0.0));
#584=DIRECTION('',(0.0,1.0,0.0));
#585=AXIS2_PLACEMENT_3D('',#582,#583,#584);
#586=CIRCLE('',#585,0.500000000000000);
#587=EDGE_CURVE('',#412,#362,#586,.T.);
#588=ORIENTED_EDGE('',*,*,#587,.F.);
#589=ORIENTED_EDGE('',*,*,#417,.T.);
#590=ORIENTED_EDGE('',*,*,#447,.F.);
#591=EDGE_LOOP('',(#581,#588,#589,#590));
#592=FACE_OUTER_BOUND('',#591,.T.);
#593=ORIENTED_EDGE('',*,*,#287,.T.);
#594=ORIENTED_EDGE('',*,*,#527,.T.);
#595=EDGE_LOOP('',(#593,#594));
#596=FACE_BOUND('',#595,.T.);
#597=ADVANCED_FACE('',(#592,#596),#580,.T.);
#598=CARTESIAN_POINT('',(1.250000000000000,0.0,0.0));
#599=DIRECTION('',(1.0,0.0,0.0));
#600=DIRECTION('',(0.0,1.0,0.0));
#601=AXIS2_PLACEMENT_3D('',#598,#599,#600);
#602=CYLINDRICAL_SURFACE('',#601,0.500000000000000);
#603=ORIENTED_EDGE('',*,*,#369,.T.);
#604=ORIENTED_EDGE('',*,*,#473,.F.);
#605=ORIENTED_EDGE('',*,*,#425,.T.);
#606=ORIENTED_EDGE('',*,*,#587,.T.);
#607=EDGE_LOOP('',(#603,#604,#605,#606));
#608=FACE_OUTER_BOUND('',#607,.T.);
#609=ADVANCED_FACE('',(#608),#602,.T.);
#610=CLOSED_SHELL('',(#166,#207,#249,#291,#329,#355,#395,#435,#459,#487,#505,#515,#533,#545,#564,#575,#597,#609));
#611=MANIFOLD_SOLID_BREP('643',#610);
#612=ADVANCED_BREP_SHAPE_REPRESENTATION('ABSR1',(#611),#33);
#613=SHAPE_REPRESENTATION_RELATIONSHIP('SRRPL1',' ',#612,#129);
ENDSEC;
END-ISO-10303-21;
