ISO-10303-21;
HEADER;
FILE_DESCRIPTION((''),'2;1');
FILE_NAME('E159','2000-06-30T12:00:31',(''),(''),'AutoCAD STEP 2000','AutoCAD 2000',', , ');
FILE_SCHEMA(('CONFIG_CONTROL_DESIGN'));
ENDSEC;
DATA;
#8=(NAMED_UNIT(*)PLANE_ANGLE_UNIT()SI_UNIT($,.RADIAN.));
#9=DIMENSIONAL_EXPONENTS(0.0,0.0,0.0,0.0,0.0,0.0,0.0);
#10=PLANE_ANGLE_MEASURE_WITH_UNIT(PLANE_ANGLE_MEASURE(0.017453292500000),#8);
#14=(CONVERSION_BASED_UNIT('DEGREE',#10)NAMED_UNIT(#9)PLANE_ANGLE_UNIT());
#18=(NAMED_UNIT(*)SI_UNIT($,.STERADIAN.)SOLID_ANGLE_UNIT());
#20=DIMENSIONAL_EXPONENTS(1.0,0.0,0.0,0.0,0.0,0.0,0.0);
#24=(LENGTH_UNIT()NAMED_UNIT(*)SI_UNIT(.MILLI.,.METRE.));
#25=LENGTH_MEASURE_WITH_UNIT(LENGTH_MEASURE(25.399999999999999),#24);
#27=(CONVERSION_BASED_UNIT('INCH',#25)LENGTH_UNIT()NAMED_UNIT(#20));
#28=UNCERTAINTY_MEASURE_WITH_UNIT(LENGTH_MEASURE(0.000001000000000),#27,'DISTANCE_ACCURACY_VALUE','');
#33=(GEOMETRIC_REPRESENTATION_CONTEXT(3)GLOBAL_UNCERTAINTY_ASSIGNED_CONTEXT((#28))GLOBAL_UNIT_ASSIGNED_CONTEXT((#14,#18,#27))REPRESENTATION_CONTEXT('None','None'));
#34=APPLICATION_CONTEXT('CONFIGURATION CONTROLLED 3D DESIGNS OF MECHANICAL PARTS AND ASSEMBLIES');
#35=APPLICATION_PROTOCOL_DEFINITION('INTERNATIONAL STANDARD','config_control_design',1995,#34);
#36=MECHANICAL_CONTEXT('3D Mechanical Parts',#34,'mechanical');
#37=PRODUCT('Product','Product','Overall Model',(#36));
#38=PRODUCT_RELATED_PRODUCT_CATEGORY('detail',$,(#37));
#39=PRODUCT_CATEGORY('part',$);
#40=PRODUCT_CATEGORY_RELATIONSHIP('None','None',#39,#38);
#41=PERSON('1','Design','Joe',$,$,$);
#42=ORGANIZATION($,'None','None');
#43=PERSON_AND_ORGANIZATION(#41,#42);
#44=PERSON_AND_ORGANIZATION_ROLE('design_owner');
#45=CC_DESIGN_PERSON_AND_ORGANIZATION_ASSIGNMENT(#43,#44,(#37));
#46=PRODUCT_DEFINITION_FORMATION_WITH_SPECIFIED_SOURCE('None','None',#37,.NOT_KNOWN.);
#47=PERSON('2','Creator','Joe',$,$,$);
#48=ORGANIZATION($,'None','None');
#49=PERSON_AND_ORGANIZATION(#47,#48);
#50=PERSON_AND_ORGANIZATION_ROLE('creator');
#51=CC_DESIGN_PERSON_AND_ORGANIZATION_ASSIGNMENT(#49,#50,(#46));
#52=PERSON('3','Supplier','Joe',$,$,$);
#53=ORGANIZATION($,'None','None');
#54=PERSON_AND_ORGANIZATION(#52,#53);
#55=PERSON_AND_ORGANIZATION_ROLE('design_supplier');
#56=CC_DESIGN_PERSON_AND_ORGANIZATION_ASSIGNMENT(#54,#55,(#46));
#57=APPROVAL_STATUS('approved');
#58=APPROVAL(#57,'None');
#59=PERSON('4','Approver','Joe',$,$,$);
#60=ORGANIZATION($,'None','None');
#61=PERSON_AND_ORGANIZATION(#59,#60);
#62=APPROVAL_ROLE('None');
#63=APPROVAL_PERSON_ORGANIZATION(#61,#58,#62);
#64=COORDINATED_UNIVERSAL_TIME_OFFSET(8,$,.BEHIND.);
#65=CALENDAR_DATE(1996,29,5);
#66=LOCAL_TIME(12,0,0.0,#64);
#67=DATE_AND_TIME(#65,#66);
#68=APPROVAL_DATE_TIME(#67,#58);
#69=CC_DESIGN_APPROVAL(#58,(#46));
#70=SECURITY_CLASSIFICATION_LEVEL('unclassified');
#71=SECURITY_CLASSIFICATION('security','None',#70);
#72=CC_DESIGN_SECURITY_CLASSIFICATION(#71,(#46));
#73=APPROVAL_STATUS('approved');
#74=APPROVAL(#73,'None');
#75=PERSON('5','Approver','Joe',$,$,$);
#76=ORGANIZATION($,'None','None');
#77=PERSON_AND_ORGANIZATION(#75,#76);
#78=APPROVAL_ROLE('None');
#79=APPROVAL_PERSON_ORGANIZATION(#77,#74,#78);
#80=COORDINATED_UNIVERSAL_TIME_OFFSET(8,$,.BEHIND.);
#81=CALENDAR_DATE(1996,29,5);
#82=LOCAL_TIME(12,0,0.0,#80);
#83=DATE_AND_TIME(#81,#82);
#84=APPROVAL_DATE_TIME(#83,#74);
#85=CC_DESIGN_APPROVAL(#74,(#71));
#86=PERSON('6','Classifier','Joe',$,$,$);
#87=ORGANIZATION($,'None','None');
#88=PERSON_AND_ORGANIZATION(#86,#87);
#89=PERSON_AND_ORGANIZATION_ROLE('classification_officer');
#90=CC_DESIGN_PERSON_AND_ORGANIZATION_ASSIGNMENT(#88,#89,(#71));
#91=COORDINATED_UNIVERSAL_TIME_OFFSET(8,$,.BEHIND.);
#92=CALENDAR_DATE(1996,29,5);
#93=LOCAL_TIME(12,0,0.0,#91);
#94=DATE_AND_TIME(#92,#93);
#95=DATE_TIME_ROLE('classification_date');
#96=CC_DESIGN_DATE_AND_TIME_ASSIGNMENT(#94,#95,(#71));
#97=DESIGN_CONTEXT('Design Context',#34,'design');
#98=DOCUMENT_TYPE('cad_filename');
#99=DOCUMENT('None','None','None',#98);
#100=PRODUCT_DEFINITION_WITH_ASSOCIATED_DOCUMENTS('None','None',#46,#97,(#99));
#101=PERSON('7','Creator','Joe',$,$,$);
#102=ORGANIZATION($,'None','None');
#103=PERSON_AND_ORGANIZATION(#101,#102);
#104=PERSON_AND_ORGANIZATION_ROLE('creator');
#105=CC_DESIGN_PERSON_AND_ORGANIZATION_ASSIGNMENT(#103,#104,(#100));
#106=COORDINATED_UNIVERSAL_TIME_OFFSET(8,$,.BEHIND.);
#107=CALENDAR_DATE(1996,29,5);
#108=LOCAL_TIME(12,0,0.0,#106);
#109=DATE_AND_TIME(#107,#108);
#110=DATE_TIME_ROLE('creation_date');
#111=CC_DESIGN_DATE_AND_TIME_ASSIGNMENT(#109,#110,(#100));
#112=APPROVAL_STATUS('approved');
#113=APPROVAL(#112,'None');
#114=PERSON('8','Approver','Joe',$,$,$);
#115=ORGANIZATION($,'None','None');
#116=PERSON_AND_ORGANIZATION(#114,#115);
#117=APPROVAL_ROLE('None');
#118=APPROVAL_PERSON_ORGANIZATION(#116,#113,#117);
#119=COORDINATED_UNIVERSAL_TIME_OFFSET(8,$,.BEHIND.);
#120=CALENDAR_DATE(1996,29,5);
#121=LOCAL_TIME(12,0,0.0,#119);
#122=DATE_AND_TIME(#120,#121);
#123=APPROVAL_DATE_TIME(#122,#113);
#124=CC_DESIGN_APPROVAL(#113,(#100));
#125=CARTESIAN_POINT('NONE',(0.0,0.0,0.0));
#126=DIRECTION('NONE',(0.0,0.0,1.0));
#127=DIRECTION('NONE',(1.0,0.0,0.0));
#128=AXIS2_PLACEMENT_3D('NONE',#125,#126,#127);
#129=SHAPE_REPRESENTATION('SR1',(#128),#33);
#130=PRODUCT_DEFINITION_SHAPE('PDS1','Test Part',#100);
#131=SHAPE_DEFINITION_REPRESENTATION(#130,#129);
#132=CARTESIAN_POINT('',(0.763125000000000,0.0,0.0));
#133=DIRECTION('',(1.0,0.0,0.0));
#134=DIRECTION('',(0.0,1.0,0.0));
#135=AXIS2_PLACEMENT_3D('',#132,#133,#134);
#136=CYLINDRICAL_SURFACE('',#135,0.500000000000000);
#137=CARTESIAN_POINT('',(0.031250000000000,0.500000000000000,0.0));
#138=VERTEX_POINT('',#137);
#139=CARTESIAN_POINT('',(1.495000000000000,0.500000000000000,0.0));
#140=VERTEX_POINT('',#139);
#141=CARTESIAN_POINT('',(0.031250000000000,0.500000000000000,0.0));
#142=DIRECTION('',(1.0,0.0,0.0));
#143=VECTOR('',#142,1.463750000000000);
#144=LINE('',#141,#143);
#145=EDGE_CURVE('',#138,#140,#144,.T.);
#146=ORIENTED_EDGE('',*,*,#145,.F.);
#147=CARTESIAN_POINT('',(0.031250000000000,-0.500000000000000,-3.491483E-015));
#148=VERTEX_POINT('',#147);
#149=CARTESIAN_POINT('',(0.031250000000000,0.0,0.0));
#150=DIRECTION('',(1.0,0.0,0.0));
#151=DIRECTION('',(0.0,1.0,0.0));
#152=AXIS2_PLACEMENT_3D('',#149,#150,#151);
#153=CIRCLE('',#152,0.500000000000000);
#154=EDGE_CURVE('',#138,#148,#153,.T.);
#155=ORIENTED_EDGE('',*,*,#154,.T.);
#156=CARTESIAN_POINT('',(1.495000000000000,-0.500000000000000,-3.491483E-015));
#157=VERTEX_POINT('',#156);
#158=CARTESIAN_POINT('',(1.495000000000000,-0.500000000000000,-3.491483E-015));
#159=DIRECTION('',(-1.0,0.0,0.0));
#160=VECTOR('',#159,1.463750000000000);
#161=LINE('',#158,#160);
#162=EDGE_CURVE('',#157,#148,#161,.T.);
#163=ORIENTED_EDGE('',*,*,#162,.F.);
#164=CARTESIAN_POINT('',(1.495000000000000,0.0,0.0));
#165=DIRECTION('',(1.0,0.0,0.0));
#166=DIRECTION('',(0.0,1.0,0.0));
#167=AXIS2_PLACEMENT_3D('',#164,#165,#166);
#168=CIRCLE('',#167,0.500000000000000);
#169=EDGE_CURVE('',#140,#157,#168,.T.);
#170=ORIENTED_EDGE('',*,*,#169,.F.);
#171=EDGE_LOOP('',(#146,#155,#163,#170));
#172=FACE_OUTER_BOUND('',#171,.T.);
#173=ADVANCED_FACE('',(#172),#136,.T.);
#174=CARTESIAN_POINT('',(0.015625000000000,0.0,0.0));
#175=DIRECTION('',(1.0,0.0,0.0));
#176=DIRECTION('',(0.0,1.0,0.0));
#177=AXIS2_PLACEMENT_3D('',#174,#175,#176);
#178=CONICAL_SURFACE('',#177,0.484375000000000,45.000000000000007);
#179=CARTESIAN_POINT('',(0.0,0.468750000000000,0.0));
#180=VERTEX_POINT('',#179);
#181=CARTESIAN_POINT('',(0.0,0.468750000000000,0.0));
#182=DIRECTION('',(0.707106781186548,0.707106781186547,0.0));
#183=VECTOR('',#182,0.044194173824159);
#184=LINE('',#181,#183);
#185=EDGE_CURVE('',#180,#138,#184,.T.);
#186=ORIENTED_EDGE('',*,*,#185,.F.);
#187=CARTESIAN_POINT('',(0.0,-0.468750000000000,-3.273266E-015));
#188=VERTEX_POINT('',#187);
#189=CARTESIAN_POINT('',(0.0,0.0,0.0));
#190=DIRECTION('',(1.0,0.0,0.0));
#191=DIRECTION('',(0.0,1.0,0.0));
#192=AXIS2_PLACEMENT_3D('',#189,#190,#191);
#193=CIRCLE('',#192,0.468750000000000);
#194=EDGE_CURVE('',#180,#188,#193,.T.);
#195=ORIENTED_EDGE('',*,*,#194,.T.);
#196=CARTESIAN_POINT('',(0.031250000000000,-0.500000000000000,-3.491483E-015));
#197=DIRECTION('',(-0.707106781186548,0.707106781186547,4.937703E-015));
#198=VECTOR('',#197,0.044194173824159);
#199=LINE('',#196,#198);
#200=EDGE_CURVE('',#148,#188,#199,.T.);
#201=ORIENTED_EDGE('',*,*,#200,.F.);
#202=ORIENTED_EDGE('',*,*,#154,.F.);
#203=EDGE_LOOP('',(#186,#195,#201,#202));
#204=FACE_OUTER_BOUND('',#203,.T.);
#205=ADVANCED_FACE('',(#204),#178,.T.);
#206=CARTESIAN_POINT('',(-0.281249999999995,4.440892E-016,0.0));
#207=DIRECTION('',(0.0,0.0,1.0));
#208=DIRECTION('',(1.0,0.0,0.0));
#209=AXIS2_PLACEMENT_3D('',#206,#207,#208);
#210=SPHERICAL_SURFACE('',#209,4.531249999999995);
#211=CARTESIAN_POINT('',(4.187500000000000,3.164922E-014,-0.750000000000000));
#212=VERTEX_POINT('',#211);
#213=CARTESIAN_POINT('',(4.187500000000000,3.164922E-014,0.750000000000000));
#214=VERTEX_POINT('',#213);
#215=CARTESIAN_POINT('',(-0.281249999999995,4.440892E-016,0.0));
#216=DIRECTION('',(0.0,-1.0,0.0));
#217=DIRECTION('',(0.0,0.0,1.0));
#218=AXIS2_PLACEMENT_3D('',#215,#216,#217);
#219=CIRCLE('',#218,4.531249999999995);
#220=EDGE_CURVE('',#212,#214,#219,.T.);
#221=ORIENTED_EDGE('',*,*,#220,.F.);
#222=CARTESIAN_POINT('',(4.187500000000000,0.750000000000000,0.0));
#223=VERTEX_POINT('',#222);
#224=CARTESIAN_POINT('',(4.187500000000000,0.0,0.0));
#225=DIRECTION('',(1.0,0.0,0.0));
#226=DIRECTION('',(0.0,1.0,0.0));
#227=AXIS2_PLACEMENT_3D('',#224,#225,#226);
#228=CIRCLE('',#227,0.750000000000000);
#229=EDGE_CURVE('',#212,#223,#228,.T.);
#230=ORIENTED_EDGE('',*,*,#229,.T.);
#231=CARTESIAN_POINT('',(4.187500000000000,0.0,0.0));
#232=DIRECTION('',(1.0,0.0,0.0));
#233=DIRECTION('',(0.0,1.0,0.0));
#234=AXIS2_PLACEMENT_3D('',#231,#232,#233);
#235=CIRCLE('',#234,0.750000000000000);
#236=EDGE_CURVE('',#223,#214,#235,.T.);
#237=ORIENTED_EDGE('',*,*,#236,.T.);
#238=EDGE_LOOP('',(#221,#230,#237));
#239=FACE_OUTER_BOUND('',#238,.T.);
#240=ADVANCED_FACE('',(#239),#210,.T.);
#241=CARTESIAN_POINT('',(3.783750000000000,0.0,0.0));
#242=DIRECTION('',(1.0,0.0,0.0));
#243=DIRECTION('',(0.0,1.0,0.0));
#244=AXIS2_PLACEMENT_3D('',#241,#242,#243);
#245=CYLINDRICAL_SURFACE('',#244,0.750000000000000);
#246=CARTESIAN_POINT('',(3.132000000000000,0.750000000000000,0.0));
#247=VERTEX_POINT('',#246);
#248=CARTESIAN_POINT('',(3.132000000000000,0.750000000000000,0.0));
#249=DIRECTION('',(1.0,0.0,0.0));
#250=VECTOR('',#249,1.055500000000000);
#251=LINE('',#248,#250);
#252=EDGE_CURVE('',#247,#223,#251,.T.);
#253=ORIENTED_EDGE('',*,*,#252,.F.);
#254=CARTESIAN_POINT('',(3.132000000000000,-0.750000000000000,-5.237225E-015));
#255=VERTEX_POINT('',#254);
#256=CARTESIAN_POINT('',(3.132000000000000,0.0,0.0));
#257=DIRECTION('',(-1.0,0.0,0.0));
#258=DIRECTION('',(0.0,1.0,0.0));
#259=AXIS2_PLACEMENT_3D('',#256,#257,#258);
#260=CIRCLE('',#259,0.750000000000000);
#261=EDGE_CURVE('',#255,#247,#260,.T.);
#262=ORIENTED_EDGE('',*,*,#261,.F.);
#263=CARTESIAN_POINT('',(4.187500000000000,-0.750000000000000,-5.237225E-015));
#264=VERTEX_POINT('',#263);
#265=CARTESIAN_POINT('',(4.187500000000000,-0.750000000000000,-5.237225E-015));
#266=DIRECTION('',(-1.0,0.0,0.0));
#267=VECTOR('',#266,1.055500000000000);
#268=LINE('',#265,#267);
#269=EDGE_CURVE('',#264,#255,#268,.T.);
#270=ORIENTED_EDGE('',*,*,#269,.F.);
#271=CARTESIAN_POINT('',(4.187500000000000,0.0,0.0));
#272=DIRECTION('',(1.0,0.0,0.0));
#273=DIRECTION('',(0.0,1.0,0.0));
#274=AXIS2_PLACEMENT_3D('',#271,#272,#273);
#275=CIRCLE('',#274,0.750000000000000);
#276=EDGE_CURVE('',#214,#264,#275,.T.);
#277=ORIENTED_EDGE('',*,*,#276,.F.);
#278=ORIENTED_EDGE('',*,*,#236,.F.);
#279=EDGE_LOOP('',(#253,#262,#270,#277,#278));
#280=FACE_OUTER_BOUND('',#279,.T.);
#281=ADVANCED_FACE('',(#280),#245,.T.);
#282=CARTESIAN_POINT('',(2.750000000000000,0.0,0.0));
#283=DIRECTION('',(1.0,0.0,0.0));
#284=DIRECTION('',(0.0,1.0,0.0));
#285=AXIS2_PLACEMENT_3D('',#282,#283,#284);
#286=CYLINDRICAL_SURFACE('',#285,0.500000000000000);
#287=CARTESIAN_POINT('',(2.120000000000000,0.500000000000000,0.0));
#288=VERTEX_POINT('',#287);
#289=CARTESIAN_POINT('',(3.132000000000000,0.500000000000000,3.491483E-015));
#290=VERTEX_POINT('',#289);
#291=CARTESIAN_POINT('',(2.120000000000000,0.500000000000000,0.0));
#292=DIRECTION('',(1.0,0.0,0.0));
#293=VECTOR('',#292,1.012000000000000);
#294=LINE('',#291,#293);
#295=EDGE_CURVE('',#288,#290,#294,.T.);
#296=ORIENTED_EDGE('',*,*,#295,.F.);
#297=CARTESIAN_POINT('',(2.120000000000000,-0.500000000000000,-3.491483E-015));
#298=VERTEX_POINT('',#297);
#299=CARTESIAN_POINT('',(2.120000000000000,0.0,0.0));
#300=DIRECTION('',(1.0,0.0,0.0));
#301=DIRECTION('',(0.0,1.0,0.0));
#302=AXIS2_PLACEMENT_3D('',#299,#300,#301);
#303=CIRCLE('',#302,0.500000000000000);
#304=EDGE_CURVE('',#288,#298,#303,.T.);
#305=ORIENTED_EDGE('',*,*,#304,.T.);
#306=CARTESIAN_POINT('',(3.132000000000000,-0.500000000000000,-3.491483E-015));
#307=VERTEX_POINT('',#306);
#308=CARTESIAN_POINT('',(3.132000000000000,-0.500000000000000,-3.491483E-015));
#309=DIRECTION('',(-1.0,0.0,0.0));
#310=VECTOR('',#309,1.012000000000000);
#311=LINE('',#308,#310);
#312=EDGE_CURVE('',#307,#298,#311,.T.);
#313=ORIENTED_EDGE('',*,*,#312,.F.);
#314=CARTESIAN_POINT('',(3.132000000000000,0.0,0.0));
#315=DIRECTION('',(-1.0,0.0,0.0));
#316=DIRECTION('',(0.0,1.0,0.0));
#317=AXIS2_PLACEMENT_3D('',#314,#315,#316);
#318=CIRCLE('',#317,0.500000000000000);
#319=EDGE_CURVE('',#307,#290,#318,.T.);
#320=ORIENTED_EDGE('',*,*,#319,.T.);
#321=EDGE_LOOP('',(#296,#305,#313,#320));
#322=FACE_OUTER_BOUND('',#321,.T.);
#323=ADVANCED_FACE('',(#322),#286,.T.);
#324=CARTESIAN_POINT('',(3.132000000000000,0.375000000000000,0.0));
#325=DIRECTION('',(-1.0,0.0,0.0));
#326=DIRECTION('',(0.0,0.0,1.0));
#327=AXIS2_PLACEMENT_3D('',#324,#325,#326);
#328=PLANE('',#327);
#329=CARTESIAN_POINT('',(3.132000000000000,0.0,0.0));
#330=DIRECTION('',(-1.0,0.0,0.0));
#331=DIRECTION('',(0.0,1.0,0.0));
#332=AXIS2_PLACEMENT_3D('',#329,#330,#331);
#333=CIRCLE('',#332,0.750000000000000);
#334=EDGE_CURVE('',#247,#255,#333,.T.);
#335=ORIENTED_EDGE('',*,*,#334,.T.);
#336=ORIENTED_EDGE('',*,*,#261,.T.);
#337=EDGE_LOOP('',(#335,#336));
#338=FACE_OUTER_BOUND('',#337,.T.);
#339=ORIENTED_EDGE('',*,*,#319,.F.);
#340=CARTESIAN_POINT('',(3.132000000000000,0.0,0.0));
#341=DIRECTION('',(-1.0,0.0,0.0));
#342=DIRECTION('',(0.0,1.0,0.0));
#343=AXIS2_PLACEMENT_3D('',#340,#341,#342);
#344=CIRCLE('',#343,0.500000000000000);
#345=EDGE_CURVE('',#290,#307,#344,.T.);
#346=ORIENTED_EDGE('',*,*,#345,.F.);
#347=EDGE_LOOP('',(#339,#346));
#348=FACE_BOUND('',#347,.T.);
#349=ADVANCED_FACE('',(#338,#348),#328,.T.);
#350=CARTESIAN_POINT('',(1.495000000000000,0.625000000000000,-0.730508408994468));
#351=DIRECTION('',(0.0,-1.0,0.0));
#352=DIRECTION('',(0.0,0.0,-1.0));
#353=AXIS2_PLACEMENT_3D('',#350,#351,#352);
#354=PLANE('',#353);
#355=CARTESIAN_POINT('',(1.495000000000000,0.625000000000000,-0.286410980934740));
#356=VERTEX_POINT('',#355);
#357=CARTESIAN_POINT('',(2.120000000000000,0.625000000000000,-0.286410980934740));
#358=VERTEX_POINT('',#357);
#359=CARTESIAN_POINT('',(1.495000000000000,0.625000000000000,-0.286410980934740));
#360=DIRECTION('',(1.0,0.0,0.0));
#361=VECTOR('',#360,0.625000000000000);
#362=LINE('',#359,#361);
#363=EDGE_CURVE('',#356,#358,#362,.T.);
#364=ORIENTED_EDGE('',*,*,#363,.F.);
#365=CARTESIAN_POINT('',(1.495000000000000,0.625000000000000,0.286410980934740));
#366=VERTEX_POINT('',#365);
#367=CARTESIAN_POINT('',(1.495000000000000,0.625000000000000,0.286410980934740));
#368=DIRECTION('',(0.0,0.0,-1.0));
#369=VECTOR('',#368,0.572821961869480);
#370=LINE('',#367,#369);
#371=EDGE_CURVE('',#366,#356,#370,.T.);
#372=ORIENTED_EDGE('',*,*,#371,.F.);
#373=CARTESIAN_POINT('',(2.120000000000000,0.625000000000000,0.286410980934740));
#374=VERTEX_POINT('',#373);
#375=CARTESIAN_POINT('',(2.120000000000000,0.625000000000000,0.286410980934740));
#376=DIRECTION('',(-1.0,0.0,0.0));
#377=VECTOR('',#376,0.625000000000000);
#378=LINE('',#375,#377);
#379=EDGE_CURVE('',#374,#366,#378,.T.);
#380=ORIENTED_EDGE('',*,*,#379,.F.);
#381=CARTESIAN_POINT('',(2.120000000000000,0.625000000000000,-0.286410980934740));
#382=DIRECTION('',(0.0,0.0,1.0));
#383=VECTOR('',#382,0.572821961869480);
#384=LINE('',#381,#383);
#385=EDGE_CURVE('',#358,#374,#384,.T.);
#386=ORIENTED_EDGE('',*,*,#385,.F.);
#387=EDGE_LOOP('',(#364,#372,#380,#386));
#388=FACE_OUTER_BOUND('',#387,.T.);
#389=ADVANCED_FACE('',(#388),#354,.F.);
#390=CARTESIAN_POINT('',(2.120000000000000,-0.625000000000000,0.286410980934740));
#391=CARTESIAN_POINT('',(2.120000000000000,-0.625000000000000,-0.286410980934740));
#392=CARTESIAN_POINT('',(1.495000000000000,-0.625000000000000,0.286410980934740));
#393=CARTESIAN_POINT('',(1.495000000000000,-0.625000000000000,-0.286410980934740));
#394=B_SPLINE_SURFACE_WITH_KNOTS('',1,1,((#390,#392),(#391,#393)),.UNSPECIFIED.,.F.,.F.,.U.,(2,2),(2,2),(0.0,0.572821961869480),(0.0,0.625000000000000),.UNSPECIFIED.);
#395=CARTESIAN_POINT('',(1.495000000000000,-0.625000000000000,0.286410980934740));
#396=VERTEX_POINT('',#395);
#397=CARTESIAN_POINT('',(2.120000000000000,-0.625000000000000,0.286410980934740));
#398=VERTEX_POINT('',#397);
#399=CARTESIAN_POINT('',(1.495000000000000,-0.625000000000000,0.286410980934740));
#400=DIRECTION('',(1.0,0.0,0.0));
#401=VECTOR('',#400,0.625000000000000);
#402=LINE('',#399,#401);
#403=EDGE_CURVE('',#396,#398,#402,.T.);
#404=ORIENTED_EDGE('',*,*,#403,.F.);
#405=CARTESIAN_POINT('',(1.495000000000000,-0.625000000000000,-0.286410980934740));
#406=VERTEX_POINT('',#405);
#407=CARTESIAN_POINT('',(1.495000000000000,-0.625000000000000,-0.286410980934740));
#408=DIRECTION('',(0.0,0.0,1.0));
#409=VECTOR('',#408,0.572821961869480);
#410=LINE('',#407,#409);
#411=EDGE_CURVE('',#406,#396,#410,.T.);
#412=ORIENTED_EDGE('',*,*,#411,.F.);
#413=CARTESIAN_POINT('',(2.120000000000000,-0.625000000000000,-0.286410980934740));
#414=VERTEX_POINT('',#413);
#415=CARTESIAN_POINT('',(2.120000000000000,-0.625000000000000,-0.286410980934740));
#416=DIRECTION('',(-1.0,0.0,0.0));
#417=VECTOR('',#416,0.625000000000000);
#418=LINE('',#415,#417);
#419=EDGE_CURVE('',#414,#406,#418,.T.);
#420=ORIENTED_EDGE('',*,*,#419,.F.);
#421=CARTESIAN_POINT('',(2.120000000000000,-0.625000000000000,0.286410980934740));
#422=DIRECTION('',(0.0,0.0,-1.0));
#423=VECTOR('',#422,0.572821961869480);
#424=LINE('',#421,#423);
#425=EDGE_CURVE('',#398,#414,#424,.T.);
#426=ORIENTED_EDGE('',*,*,#425,.F.);
#427=EDGE_LOOP('',(#404,#412,#420,#426));
#428=FACE_OUTER_BOUND('',#427,.T.);
#429=ADVANCED_FACE('',(#428),#394,.F.);
#430=CARTESIAN_POINT('',(1.807500000000000,0.0,0.0));
#431=DIRECTION('',(1.0,0.0,0.0));
#432=DIRECTION('',(0.0,1.0,0.0));
#433=AXIS2_PLACEMENT_3D('',#430,#431,#432);
#434=CYLINDRICAL_SURFACE('',#433,0.687500000000000);
#435=ORIENTED_EDGE('',*,*,#379,.T.);
#436=CARTESIAN_POINT('',(1.495000000000000,0.0,0.0));
#437=DIRECTION('',(1.0,0.0,0.0));
#438=DIRECTION('',(0.0,1.0,0.0));
#439=AXIS2_PLACEMENT_3D('',#436,#437,#438);
#440=CIRCLE('',#439,0.687500000000000);
#441=EDGE_CURVE('',#366,#396,#440,.T.);
#442=ORIENTED_EDGE('',*,*,#441,.T.);
#443=ORIENTED_EDGE('',*,*,#403,.T.);
#444=CARTESIAN_POINT('',(2.120000000000000,0.0,0.0));
#445=DIRECTION('',(1.0,0.0,0.0));
#446=DIRECTION('',(0.0,1.0,0.0));
#447=AXIS2_PLACEMENT_3D('',#444,#445,#446);
#448=CIRCLE('',#447,0.687500000000000);
#449=EDGE_CURVE('',#374,#398,#448,.T.);
#450=ORIENTED_EDGE('',*,*,#449,.F.);
#451=EDGE_LOOP('',(#435,#442,#443,#450));
#452=FACE_OUTER_BOUND('',#451,.T.);
#453=ADVANCED_FACE('',(#452),#434,.T.);
#454=CARTESIAN_POINT('',(2.120000000000000,0.593750000000000,0.0));
#455=DIRECTION('',(1.0,0.0,0.0));
#456=DIRECTION('',(0.0,0.0,-1.0));
#457=AXIS2_PLACEMENT_3D('',#454,#455,#456);
#458=PLANE('',#457);
#459=ORIENTED_EDGE('',*,*,#385,.T.);
#460=ORIENTED_EDGE('',*,*,#449,.T.);
#461=ORIENTED_EDGE('',*,*,#425,.T.);
#462=CARTESIAN_POINT('',(2.120000000000000,0.0,0.0));
#463=DIRECTION('',(1.0,0.0,0.0));
#464=DIRECTION('',(0.0,1.0,0.0));
#465=AXIS2_PLACEMENT_3D('',#462,#463,#464);
#466=CIRCLE('',#465,0.687500000000000);
#467=EDGE_CURVE('',#414,#358,#466,.T.);
#468=ORIENTED_EDGE('',*,*,#467,.T.);
#469=EDGE_LOOP('',(#459,#460,#461,#468));
#470=FACE_OUTER_BOUND('',#469,.T.);
#471=ORIENTED_EDGE('',*,*,#304,.F.);
#472=CARTESIAN_POINT('',(2.120000000000000,0.0,0.0));
#473=DIRECTION('',(1.0,0.0,0.0));
#474=DIRECTION('',(0.0,1.0,0.0));
#475=AXIS2_PLACEMENT_3D('',#472,#473,#474);
#476=CIRCLE('',#475,0.500000000000000);
#477=EDGE_CURVE('',#298,#288,#476,.T.);
#478=ORIENTED_EDGE('',*,*,#477,.F.);
#479=EDGE_LOOP('',(#471,#478));
#480=FACE_BOUND('',#479,.T.);
#481=ADVANCED_FACE('',(#470,#480),#458,.T.);
#482=CARTESIAN_POINT('',(2.750000000000000,0.0,0.0));
#483=DIRECTION('',(1.0,0.0,0.0));
#484=DIRECTION('',(0.0,1.0,0.0));
#485=AXIS2_PLACEMENT_3D('',#482,#483,#484);
#486=CYLINDRICAL_SURFACE('',#485,0.500000000000000);
#487=ORIENTED_EDGE('',*,*,#295,.T.);
#488=ORIENTED_EDGE('',*,*,#345,.T.);
#489=ORIENTED_EDGE('',*,*,#312,.T.);
#490=ORIENTED_EDGE('',*,*,#477,.T.);
#491=EDGE_LOOP('',(#487,#488,#489,#490));
#492=FACE_OUTER_BOUND('',#491,.T.);
#493=ADVANCED_FACE('',(#492),#486,.T.);
#494=CARTESIAN_POINT('',(3.783750000000000,0.0,0.0));
#495=DIRECTION('',(1.0,0.0,0.0));
#496=DIRECTION('',(0.0,1.0,0.0));
#497=AXIS2_PLACEMENT_3D('',#494,#495,#496);
#498=CYLINDRICAL_SURFACE('',#497,0.750000000000000);
#499=ORIENTED_EDGE('',*,*,#252,.T.);
#500=ORIENTED_EDGE('',*,*,#229,.F.);
#501=CARTESIAN_POINT('',(4.187500000000000,0.0,0.0));
#502=DIRECTION('',(1.0,0.0,0.0));
#503=DIRECTION('',(0.0,1.0,0.0));
#504=AXIS2_PLACEMENT_3D('',#501,#502,#503);
#505=CIRCLE('',#504,0.750000000000000);
#506=EDGE_CURVE('',#264,#212,#505,.T.);
#507=ORIENTED_EDGE('',*,*,#506,.F.);
#508=ORIENTED_EDGE('',*,*,#269,.T.);
#509=ORIENTED_EDGE('',*,*,#334,.F.);
#510=EDGE_LOOP('',(#499,#500,#507,#508,#509));
#511=FACE_OUTER_BOUND('',#510,.T.);
#512=ADVANCED_FACE('',(#511),#498,.T.);
#513=CARTESIAN_POINT('',(-0.281249999999995,4.440892E-016,0.0));
#514=DIRECTION('',(0.0,0.0,1.0));
#515=DIRECTION('',(1.0,0.0,0.0));
#516=AXIS2_PLACEMENT_3D('',#513,#514,#515);
#517=SPHERICAL_SURFACE('',#516,4.531249999999995);
#518=ORIENTED_EDGE('',*,*,#220,.T.);
#519=ORIENTED_EDGE('',*,*,#276,.T.);
#520=ORIENTED_EDGE('',*,*,#506,.T.);
#521=EDGE_LOOP('',(#518,#519,#520));
#522=FACE_OUTER_BOUND('',#521,.T.);
#523=ADVANCED_FACE('',(#522),#517,.T.);
#524=CARTESIAN_POINT('',(0.0,0.234375000000000,0.0));
#525=DIRECTION('',(-1.0,0.0,0.0));
#526=DIRECTION('',(0.0,0.0,1.0));
#527=AXIS2_PLACEMENT_3D('',#524,#525,#526);
#528=PLANE('',#527);
#529=ORIENTED_EDGE('',*,*,#194,.F.);
#530=CARTESIAN_POINT('',(0.0,0.0,0.0));
#531=DIRECTION('',(1.0,0.0,0.0));
#532=DIRECTION('',(0.0,1.0,0.0));
#533=AXIS2_PLACEMENT_3D('',#530,#531,#532);
#534=CIRCLE('',#533,0.468750000000000);
#535=EDGE_CURVE('',#188,#180,#534,.T.);
#536=ORIENTED_EDGE('',*,*,#535,.F.);
#537=EDGE_LOOP('',(#529,#536));
#538=FACE_OUTER_BOUND('',#537,.T.);
#539=ADVANCED_FACE('',(#538),#528,.T.);
#540=CARTESIAN_POINT('',(0.015625000000000,0.0,0.0));
#541=DIRECTION('',(1.0,0.0,0.0));
#542=DIRECTION('',(0.0,1.0,0.0));
#543=AXIS2_PLACEMENT_3D('',#540,#541,#542);
#544=CONICAL_SURFACE('',#543,0.484375000000000,45.000000000000007);
#545=ORIENTED_EDGE('',*,*,#185,.T.);
#546=CARTESIAN_POINT('',(0.031250000000000,0.0,0.0));
#547=DIRECTION('',(1.0,0.0,0.0));
#548=DIRECTION('',(0.0,1.0,0.0));
#549=AXIS2_PLACEMENT_3D('',#546,#547,#548);
#550=CIRCLE('',#549,0.500000000000000);
#551=EDGE_CURVE('',#148,#138,#550,.T.);
#552=ORIENTED_EDGE('',*,*,#551,.F.);
#553=ORIENTED_EDGE('',*,*,#200,.T.);
#554=ORIENTED_EDGE('',*,*,#535,.T.);
#555=EDGE_LOOP('',(#545,#552,#553,#554));
#556=FACE_OUTER_BOUND('',#555,.T.);
#557=ADVANCED_FACE('',(#556),#544,.T.);
#558=CARTESIAN_POINT('',(0.763125000000000,0.0,0.0));
#559=DIRECTION('',(1.0,0.0,0.0));
#560=DIRECTION('',(0.0,1.0,0.0));
#561=AXIS2_PLACEMENT_3D('',#558,#559,#560);
#562=CYLINDRICAL_SURFACE('',#561,0.500000000000000);
#563=ORIENTED_EDGE('',*,*,#145,.T.);
#564=CARTESIAN_POINT('',(1.495000000000000,0.0,0.0));
#565=DIRECTION('',(1.0,0.0,0.0));
#566=DIRECTION('',(0.0,1.0,0.0));
#567=AXIS2_PLACEMENT_3D('',#564,#565,#566);
#568=CIRCLE('',#567,0.500000000000000);
#569=EDGE_CURVE('',#157,#140,#568,.T.);
#570=ORIENTED_EDGE('',*,*,#569,.F.);
#571=ORIENTED_EDGE('',*,*,#162,.T.);
#572=ORIENTED_EDGE('',*,*,#551,.T.);
#573=EDGE_LOOP('',(#563,#570,#571,#572));
#574=FACE_OUTER_BOUND('',#573,.T.);
#575=ADVANCED_FACE('',(#574),#562,.T.);
#576=CARTESIAN_POINT('',(1.495000000000000,0.593750000000000,0.0));
#577=DIRECTION('',(-1.0,0.0,0.0));
#578=DIRECTION('',(0.0,0.0,1.0));
#579=AXIS2_PLACEMENT_3D('',#576,#577,#578);
#580=PLANE('',#579);
#581=ORIENTED_EDGE('',*,*,#371,.T.);
#582=CARTESIAN_POINT('',(1.495000000000000,0.0,0.0));
#583=DIRECTION('',(1.0,0.0,0.0));
#584=DIRECTION('',(0.0,1.0,0.0));
#585=AXIS2_PLACEMENT_3D('',#582,#583,#584);
#586=CIRCLE('',#585,0.687500000000000);
#587=EDGE_CURVE('',#406,#356,#586,.T.);
#588=ORIENTED_EDGE('',*,*,#587,.F.);
#589=ORIENTED_EDGE('',*,*,#411,.T.);
#590=ORIENTED_EDGE('',*,*,#441,.F.);
#591=EDGE_LOOP('',(#581,#588,#589,#590));
#592=FACE_OUTER_BOUND('',#591,.T.);
#593=ORIENTED_EDGE('',*,*,#169,.T.);
#594=ORIENTED_EDGE('',*,*,#569,.T.);
#595=EDGE_LOOP('',(#593,#594));
#596=FACE_BOUND('',#595,.T.);
#597=ADVANCED_FACE('',(#592,#596),#580,.T.);
#598=CARTESIAN_POINT('',(1.807500000000000,0.0,0.0));
#599=DIRECTION('',(1.0,0.0,0.0));
#600=DIRECTION('',(0.0,1.0,0.0));
#601=AXIS2_PLACEMENT_3D('',#598,#599,#600);
#602=CYLINDRICAL_SURFACE('',#601,0.687500000000000);
#603=ORIENTED_EDGE('',*,*,#363,.T.);
#604=ORIENTED_EDGE('',*,*,#467,.F.);
#605=ORIENTED_EDGE('',*,*,#419,.T.);
#606=ORIENTED_EDGE('',*,*,#587,.T.);
#607=EDGE_LOOP('',(#603,#604,#605,#606));
#608=FACE_OUTER_BOUND('',#607,.T.);
#609=ADVANCED_FACE('',(#608),#602,.T.);
#610=CLOSED_SHELL('',(#173,#205,#240,#281,#323,#349,#389,#429,#453,#481,#493,#512,#523,#539,#557,#575,#597,#609));
#611=MANIFOLD_SOLID_BREP('661',#610);
#612=ADVANCED_BREP_SHAPE_REPRESENTATION('ABSR1',(#611),#33);
#613=SHAPE_REPRESENTATION_RELATIONSHIP('SRRPL1',' ',#612,#129);
ENDSEC;
END-ISO-10303-21;
