ISO-10303-21;
HEADER;
/* Generated by software containing ST-Developer
 * from STEP Tools, Inc. (www.steptools.com) 
 */
/* OPTION: using custom schema-name function */

FILE_DESCRIPTION(
/* description */ (''),
/* implementation_level */ '2;1');

FILE_NAME(
/* name */ 'E164_iges.stp',
/* time_stamp */ '2017-06-08T10:10:49-04:00',
/* author */ (''),
/* organization */ (''),
/* preprocessor_version */ 'ST-DEVELOPER v15',
/* originating_system */ 'SIEMENS PLM Software NX 9.0',
/* authorisation */ '');

FILE_SCHEMA (('AUTOMOTIVE_DESIGN { 1 0 10303 214 3 1 1 1 }'));
ENDSEC;

DATA;
#10=SHAPE_REPRESENTATION_RELATIONSHIP('None',
'relationship between E164_iges-None and E164_iges-None',#22,#11);
#11=ADVANCED_BREP_SHAPE_REPRESENTATION('E164_iges-None',(#32),#530);
#12=SHAPE_DEFINITION_REPRESENTATION(#13,#22);
#13=PRODUCT_DEFINITION_SHAPE('','',#14);
#14=PRODUCT_DEFINITION(' ','',#16,#15);
#15=PRODUCT_DEFINITION_CONTEXT('part definition',#21,'design');
#16=PRODUCT_DEFINITION_FORMATION_WITH_SPECIFIED_SOURCE(' ',' ',#18,
 .NOT_KNOWN.);
#17=PRODUCT_RELATED_PRODUCT_CATEGORY('part','',(#18));
#18=PRODUCT('E164_iges','E164_iges',' ',(#19));
#19=PRODUCT_CONTEXT(' ',#21,'mechanical');
#20=APPLICATION_PROTOCOL_DEFINITION('international standard',
'automotive_design',2010,#21);
#21=APPLICATION_CONTEXT(
'core data for automotive mechanical design processes');
#22=SHAPE_REPRESENTATION('E164_iges-None',(#307),#530);
#23=PRESENTATION_LAYER_ASSIGNMENT('1','Layer 1',(#32));
#24=STYLED_ITEM('',(#25),#32);
#25=PRESENTATION_STYLE_ASSIGNMENT((#26));
#26=SURFACE_STYLE_USAGE(.BOTH.,#27);
#27=SURFACE_SIDE_STYLE('',(#28));
#28=SURFACE_STYLE_FILL_AREA(#29);
#29=FILL_AREA_STYLE('',(#30));
#30=FILL_AREA_STYLE_COLOUR('',#31);
#31=DRAUGHTING_PRE_DEFINED_COLOUR('white');
#32=MANIFOLD_SOLID_BREP('76',#33);
#33=CLOSED_SHELL('',(#51,#52,#53,#54,#55,#56,#57,#58,#59,#60,#61,#62,#63,
#64,#65,#66,#67));
#34=SPHERICAL_SURFACE('',#347,9.39333333335052);
#35=CONICAL_SURFACE('',#326,0.440000000000056,74.9999999999998);
#36=CONICAL_SURFACE('',#334,0.69000000000051,44.9999999999999);
#37=CONICAL_SURFACE('',#343,1.0600000000004,45.);
#38=CYLINDRICAL_SURFACE('',#325,0.440000000000056);
#39=CYLINDRICAL_SURFACE('',#328,0.5);
#40=CYLINDRICAL_SURFACE('',#337,0.690000000000282);
#41=CYLINDRICAL_SURFACE('',#346,1.06000000000017);
#42=FACE_BOUND('',#96,.T.);
#43=FACE_BOUND('',#97,.T.);
#44=FACE_BOUND('',#101,.T.);
#45=FACE_BOUND('',#102,.T.);
#46=FACE_BOUND('',#104,.T.);
#47=FACE_BOUND('',#105,.T.);
#48=FACE_BOUND('',#106,.T.);
#49=FACE_BOUND('',#107,.T.);
#50=FACE_BOUND('',#108,.T.);
#51=ADVANCED_FACE('',(#77),#68,.T.);
#52=ADVANCED_FACE('',(#78),#69,.T.);
#53=ADVANCED_FACE('',(#79),#70,.T.);
#54=ADVANCED_FACE('',(#80),#71,.T.);
#55=ADVANCED_FACE('',(#81),#72,.T.);
#56=ADVANCED_FACE('',(#82),#73,.T.);
#57=ADVANCED_FACE('',(#42,#43),#74,.T.);
#58=ADVANCED_FACE('',(#83),#38,.F.);
#59=ADVANCED_FACE('',(#84),#35,.F.);
#60=ADVANCED_FACE('',(#85),#39,.F.);
#61=ADVANCED_FACE('',(#44,#45),#75,.T.);
#62=ADVANCED_FACE('',(#86),#36,.T.);
#63=ADVANCED_FACE('',(#46,#47,#48),#40,.T.);
#64=ADVANCED_FACE('',(#49,#50),#76,.T.);
#65=ADVANCED_FACE('',(#87),#37,.T.);
#66=ADVANCED_FACE('',(#88),#41,.T.);
#67=ADVANCED_FACE('',(#89),#34,.T.);
#68=PLANE('',#309);
#69=PLANE('',#311);
#70=PLANE('',#312);
#71=PLANE('',#314);
#72=PLANE('',#316);
#73=PLANE('',#317);
#74=PLANE('',#322);
#75=PLANE('',#331);
#76=PLANE('',#340);
#77=FACE_OUTER_BOUND('',#90,.T.);
#78=FACE_OUTER_BOUND('',#91,.T.);
#79=FACE_OUTER_BOUND('',#92,.T.);
#80=FACE_OUTER_BOUND('',#93,.T.);
#81=FACE_OUTER_BOUND('',#94,.T.);
#82=FACE_OUTER_BOUND('',#95,.T.);
#83=FACE_OUTER_BOUND('',#98,.T.);
#84=FACE_OUTER_BOUND('',#99,.T.);
#85=FACE_OUTER_BOUND('',#100,.T.);
#86=FACE_OUTER_BOUND('',#103,.T.);
#87=FACE_OUTER_BOUND('',#109,.T.);
#88=FACE_OUTER_BOUND('',#110,.T.);
#89=FACE_OUTER_BOUND('',#111,.T.);
#90=EDGE_LOOP('',(#142,#143));
#91=EDGE_LOOP('',(#144,#145));
#92=EDGE_LOOP('',(#146,#147,#148,#149));
#93=EDGE_LOOP('',(#150,#151));
#94=EDGE_LOOP('',(#152,#153));
#95=EDGE_LOOP('',(#154,#155,#156,#157));
#96=EDGE_LOOP('',(#158,#159));
#97=EDGE_LOOP('',(#160,#161));
#98=EDGE_LOOP('',(#162,#163,#164,#165,#166,#167));
#99=EDGE_LOOP('',(#168,#169,#170,#171));
#100=EDGE_LOOP('',(#172,#173,#174,#175,#176));
#101=EDGE_LOOP('',(#177,#178));
#102=EDGE_LOOP('',(#179));
#103=EDGE_LOOP('',(#180,#181,#182,#183,#184,#185));
#104=EDGE_LOOP('',(#186,#187,#188,#189,#190,#191));
#105=EDGE_LOOP('',(#192,#193,#194,#195));
#106=EDGE_LOOP('',(#196,#197,#198,#199));
#107=EDGE_LOOP('',(#200,#201));
#108=EDGE_LOOP('',(#202,#203));
#109=EDGE_LOOP('',(#204,#205,#206,#207,#208,#209));
#110=EDGE_LOOP('',(#210,#211,#212,#213,#214,#215));
#111=EDGE_LOOP('',(#216,#217));
#112=LINE('',#449,#127);
#113=LINE('',#454,#128);
#114=LINE('',#456,#129);
#115=LINE('',#457,#130);
#116=LINE('',#462,#131);
#117=LINE('',#467,#132);
#118=LINE('',#469,#133);
#119=LINE('',#470,#134);
#120=LINE('',#481,#135);
#121=LINE('',#487,#136);
#122=LINE('',#492,#137);
#123=LINE('',#503,#138);
#124=LINE('',#509,#139);
#125=LINE('',#520,#140);
#126=LINE('',#526,#141);
#127=VECTOR('',#352,1.);
#128=VECTOR('',#357,1.);
#129=VECTOR('',#360,1.);
#130=VECTOR('',#361,1.);
#131=VECTOR('',#366,1.);
#132=VECTOR('',#371,1.);
#133=VECTOR('',#374,1.);
#134=VECTOR('',#375,1.);
#135=VECTOR('',#388,1.);
#136=VECTOR('',#395,1.);
#137=VECTOR('',#400,1.);
#138=VECTOR('',#413,1.);
#139=VECTOR('',#420,1.);
#140=VECTOR('',#433,1.);
#141=VECTOR('',#440,1.);
#142=ORIENTED_EDGE('',*,*,#246,.F.);
#143=ORIENTED_EDGE('',*,*,#247,.F.);
#144=ORIENTED_EDGE('',*,*,#248,.F.);
#145=ORIENTED_EDGE('',*,*,#249,.F.);
#146=ORIENTED_EDGE('',*,*,#250,.F.);
#147=ORIENTED_EDGE('',*,*,#249,.T.);
#148=ORIENTED_EDGE('',*,*,#251,.F.);
#149=ORIENTED_EDGE('',*,*,#247,.T.);
#150=ORIENTED_EDGE('',*,*,#252,.F.);
#151=ORIENTED_EDGE('',*,*,#253,.T.);
#152=ORIENTED_EDGE('',*,*,#254,.F.);
#153=ORIENTED_EDGE('',*,*,#255,.T.);
#154=ORIENTED_EDGE('',*,*,#256,.F.);
#155=ORIENTED_EDGE('',*,*,#255,.F.);
#156=ORIENTED_EDGE('',*,*,#257,.F.);
#157=ORIENTED_EDGE('',*,*,#253,.F.);
#158=ORIENTED_EDGE('',*,*,#258,.F.);
#159=ORIENTED_EDGE('',*,*,#259,.F.);
#160=ORIENTED_EDGE('',*,*,#260,.T.);
#161=ORIENTED_EDGE('',*,*,#261,.T.);
#162=ORIENTED_EDGE('',*,*,#260,.F.);
#163=ORIENTED_EDGE('',*,*,#261,.F.);
#164=ORIENTED_EDGE('',*,*,#262,.T.);
#165=ORIENTED_EDGE('',*,*,#263,.T.);
#166=ORIENTED_EDGE('',*,*,#264,.T.);
#167=ORIENTED_EDGE('',*,*,#262,.F.);
#168=ORIENTED_EDGE('',*,*,#264,.F.);
#169=ORIENTED_EDGE('',*,*,#263,.F.);
#170=ORIENTED_EDGE('',*,*,#265,.T.);
#171=ORIENTED_EDGE('',*,*,#265,.F.);
#172=ORIENTED_EDGE('',*,*,#266,.F.);
#173=ORIENTED_EDGE('',*,*,#267,.T.);
#174=ORIENTED_EDGE('',*,*,#259,.T.);
#175=ORIENTED_EDGE('',*,*,#258,.T.);
#176=ORIENTED_EDGE('',*,*,#267,.F.);
#177=ORIENTED_EDGE('',*,*,#268,.F.);
#178=ORIENTED_EDGE('',*,*,#269,.F.);
#179=ORIENTED_EDGE('',*,*,#266,.T.);
#180=ORIENTED_EDGE('',*,*,#270,.F.);
#181=ORIENTED_EDGE('',*,*,#271,.F.);
#182=ORIENTED_EDGE('',*,*,#272,.T.);
#183=ORIENTED_EDGE('',*,*,#269,.T.);
#184=ORIENTED_EDGE('',*,*,#268,.T.);
#185=ORIENTED_EDGE('',*,*,#272,.F.);
#186=ORIENTED_EDGE('',*,*,#273,.F.);
#187=ORIENTED_EDGE('',*,*,#274,.F.);
#188=ORIENTED_EDGE('',*,*,#275,.T.);
#189=ORIENTED_EDGE('',*,*,#271,.T.);
#190=ORIENTED_EDGE('',*,*,#270,.T.);
#191=ORIENTED_EDGE('',*,*,#275,.F.);
#192=ORIENTED_EDGE('',*,*,#248,.T.);
#193=ORIENTED_EDGE('',*,*,#250,.T.);
#194=ORIENTED_EDGE('',*,*,#246,.T.);
#195=ORIENTED_EDGE('',*,*,#251,.T.);
#196=ORIENTED_EDGE('',*,*,#254,.T.);
#197=ORIENTED_EDGE('',*,*,#256,.T.);
#198=ORIENTED_EDGE('',*,*,#252,.T.);
#199=ORIENTED_EDGE('',*,*,#257,.T.);
#200=ORIENTED_EDGE('',*,*,#276,.F.);
#201=ORIENTED_EDGE('',*,*,#277,.F.);
#202=ORIENTED_EDGE('',*,*,#273,.T.);
#203=ORIENTED_EDGE('',*,*,#274,.T.);
#204=ORIENTED_EDGE('',*,*,#278,.F.);
#205=ORIENTED_EDGE('',*,*,#279,.F.);
#206=ORIENTED_EDGE('',*,*,#280,.T.);
#207=ORIENTED_EDGE('',*,*,#277,.T.);
#208=ORIENTED_EDGE('',*,*,#276,.T.);
#209=ORIENTED_EDGE('',*,*,#280,.F.);
#210=ORIENTED_EDGE('',*,*,#281,.F.);
#211=ORIENTED_EDGE('',*,*,#282,.F.);
#212=ORIENTED_EDGE('',*,*,#283,.T.);
#213=ORIENTED_EDGE('',*,*,#279,.T.);
#214=ORIENTED_EDGE('',*,*,#278,.T.);
#215=ORIENTED_EDGE('',*,*,#283,.F.);
#216=ORIENTED_EDGE('',*,*,#281,.T.);
#217=ORIENTED_EDGE('',*,*,#282,.T.);
#218=VERTEX_POINT('',#447);
#219=VERTEX_POINT('',#448);
#220=VERTEX_POINT('',#452);
#221=VERTEX_POINT('',#453);
#222=VERTEX_POINT('',#460);
#223=VERTEX_POINT('',#461);
#224=VERTEX_POINT('',#465);
#225=VERTEX_POINT('',#466);
#226=VERTEX_POINT('',#473);
#227=VERTEX_POINT('',#474);
#228=VERTEX_POINT('',#477);
#229=VERTEX_POINT('',#478);
#230=VERTEX_POINT('',#482);
#231=VERTEX_POINT('',#484);
#232=VERTEX_POINT('',#488);
#233=VERTEX_POINT('',#491);
#234=VERTEX_POINT('',#495);
#235=VERTEX_POINT('',#496);
#236=VERTEX_POINT('',#500);
#237=VERTEX_POINT('',#501);
#238=VERTEX_POINT('',#506);
#239=VERTEX_POINT('',#507);
#240=VERTEX_POINT('',#512);
#241=VERTEX_POINT('',#513);
#242=VERTEX_POINT('',#517);
#243=VERTEX_POINT('',#518);
#244=VERTEX_POINT('',#523);
#245=VERTEX_POINT('',#524);
#246=EDGE_CURVE('',#218,#219,#284,.T.);
#247=EDGE_CURVE('',#219,#218,#112,.T.);
#248=EDGE_CURVE('',#220,#221,#285,.T.);
#249=EDGE_CURVE('',#221,#220,#113,.T.);
#250=EDGE_CURVE('',#221,#218,#114,.T.);
#251=EDGE_CURVE('',#219,#220,#115,.T.);
#252=EDGE_CURVE('',#222,#223,#286,.T.);
#253=EDGE_CURVE('',#222,#223,#116,.T.);
#254=EDGE_CURVE('',#224,#225,#287,.T.);
#255=EDGE_CURVE('',#224,#225,#117,.T.);
#256=EDGE_CURVE('',#225,#222,#118,.T.);
#257=EDGE_CURVE('',#223,#224,#119,.T.);
#258=EDGE_CURVE('',#226,#227,#288,.T.);
#259=EDGE_CURVE('',#227,#226,#289,.T.);
#260=EDGE_CURVE('',#228,#229,#290,.T.);
#261=EDGE_CURVE('',#229,#228,#291,.T.);
#262=EDGE_CURVE('',#229,#230,#120,.T.);
#263=EDGE_CURVE('',#230,#231,#292,.T.);
#264=EDGE_CURVE('',#231,#230,#293,.T.);
#265=EDGE_CURVE('',#230,#232,#121,.T.);
#266=EDGE_CURVE('',#233,#233,#294,.T.);
#267=EDGE_CURVE('',#233,#227,#122,.T.);
#268=EDGE_CURVE('',#234,#235,#295,.T.);
#269=EDGE_CURVE('',#235,#234,#296,.T.);
#270=EDGE_CURVE('',#236,#237,#297,.T.);
#271=EDGE_CURVE('',#237,#236,#298,.T.);
#272=EDGE_CURVE('',#237,#235,#123,.T.);
#273=EDGE_CURVE('',#238,#239,#299,.T.);
#274=EDGE_CURVE('',#239,#238,#300,.T.);
#275=EDGE_CURVE('',#239,#237,#124,.T.);
#276=EDGE_CURVE('',#240,#241,#301,.T.);
#277=EDGE_CURVE('',#241,#240,#302,.T.);
#278=EDGE_CURVE('',#242,#243,#303,.T.);
#279=EDGE_CURVE('',#243,#242,#304,.T.);
#280=EDGE_CURVE('',#243,#241,#125,.T.);
#281=EDGE_CURVE('',#244,#245,#305,.T.);
#282=EDGE_CURVE('',#245,#244,#306,.T.);
#283=EDGE_CURVE('',#245,#243,#126,.T.);
#284=CIRCLE('',#308,0.690000000000285);
#285=CIRCLE('',#310,0.690000000000285);
#286=CIRCLE('',#313,0.690000000000281);
#287=CIRCLE('',#315,0.690000000000281);
#288=CIRCLE('',#318,0.500000000000014);
#289=CIRCLE('',#319,0.500000000000014);
#290=CIRCLE('',#320,0.440000000000035);
#291=CIRCLE('',#321,0.440000000000035);
#292=CIRCLE('',#323,0.440000000000035);
#293=CIRCLE('',#324,0.440000000000035);
#294=CIRCLE('',#327,0.500000000000014);
#295=CIRCLE('',#329,0.660000000000321);
#296=CIRCLE('',#330,0.660000000000321);
#297=CIRCLE('',#332,0.690000000000285);
#298=CIRCLE('',#333,0.690000000000284);
#299=CIRCLE('',#335,0.690000000000285);
#300=CIRCLE('',#336,0.690000000000284);
#301=CIRCLE('',#338,1.03000000000018);
#302=CIRCLE('',#339,1.03000000000018);
#303=CIRCLE('',#341,1.0600000000002);
#304=CIRCLE('',#342,1.0600000000002);
#305=CIRCLE('',#344,1.0600000000002);
#306=CIRCLE('',#345,1.0600000000002);
#307=AXIS2_PLACEMENT_3D('',#445,#348,#349);
#308=AXIS2_PLACEMENT_3D('',#446,#350,#351);
#309=AXIS2_PLACEMENT_3D('',#450,#353,#354);
#310=AXIS2_PLACEMENT_3D('',#451,#355,#356);
#311=AXIS2_PLACEMENT_3D('',#455,#358,#359);
#312=AXIS2_PLACEMENT_3D('',#458,#362,#363);
#313=AXIS2_PLACEMENT_3D('',#459,#364,#365);
#314=AXIS2_PLACEMENT_3D('',#463,#367,#368);
#315=AXIS2_PLACEMENT_3D('',#464,#369,#370);
#316=AXIS2_PLACEMENT_3D('',#468,#372,#373);
#317=AXIS2_PLACEMENT_3D('',#471,#376,#377);
#318=AXIS2_PLACEMENT_3D('',#472,#378,#379);
#319=AXIS2_PLACEMENT_3D('',#475,#380,#381);
#320=AXIS2_PLACEMENT_3D('',#476,#382,#383);
#321=AXIS2_PLACEMENT_3D('',#479,#384,#385);
#322=AXIS2_PLACEMENT_3D('',#480,#386,#387);
#323=AXIS2_PLACEMENT_3D('',#483,#389,#390);
#324=AXIS2_PLACEMENT_3D('',#485,#391,#392);
#325=AXIS2_PLACEMENT_3D('',#486,#393,#394);
#326=AXIS2_PLACEMENT_3D('',#489,#396,#397);
#327=AXIS2_PLACEMENT_3D('',#490,#398,#399);
#328=AXIS2_PLACEMENT_3D('',#493,#401,#402);
#329=AXIS2_PLACEMENT_3D('',#494,#403,#404);
#330=AXIS2_PLACEMENT_3D('',#497,#405,#406);
#331=AXIS2_PLACEMENT_3D('',#498,#407,#408);
#332=AXIS2_PLACEMENT_3D('',#499,#409,#410);
#333=AXIS2_PLACEMENT_3D('',#502,#411,#412);
#334=AXIS2_PLACEMENT_3D('',#504,#414,#415);
#335=AXIS2_PLACEMENT_3D('',#505,#416,#417);
#336=AXIS2_PLACEMENT_3D('',#508,#418,#419);
#337=AXIS2_PLACEMENT_3D('',#510,#421,#422);
#338=AXIS2_PLACEMENT_3D('',#511,#423,#424);
#339=AXIS2_PLACEMENT_3D('',#514,#425,#426);
#340=AXIS2_PLACEMENT_3D('',#515,#427,#428);
#341=AXIS2_PLACEMENT_3D('',#516,#429,#430);
#342=AXIS2_PLACEMENT_3D('',#519,#431,#432);
#343=AXIS2_PLACEMENT_3D('',#521,#434,#435);
#344=AXIS2_PLACEMENT_3D('',#522,#436,#437);
#345=AXIS2_PLACEMENT_3D('',#525,#438,#439);
#346=AXIS2_PLACEMENT_3D('',#527,#441,#442);
#347=AXIS2_PLACEMENT_3D('',#528,#443,#444);
#348=DIRECTION('',(0.,0.,1.));
#349=DIRECTION('',(1.,0.,0.));
#350=DIRECTION('',(1.,0.,1.99754898629134E-015));
#351=DIRECTION('',(1.97959999540807E-015,0.,-1.));
#352=DIRECTION('',(0.,-1.,0.));
#353=DIRECTION('',(-1.,0.,0.));
#354=DIRECTION('',(0.,1.,0.));
#355=DIRECTION('',(-1.,0.,0.));
#356=DIRECTION('',(0.,0.,1.));
#357=DIRECTION('',(0.,1.,0.));
#358=DIRECTION('',(1.,0.,0.));
#359=DIRECTION('',(0.,-1.,0.));
#360=DIRECTION('',(1.,0.,0.));
#361=DIRECTION('',(-1.,0.,0.));
#362=DIRECTION('',(0.,0.,-1.));
#363=DIRECTION('',(-1.,0.,0.));
#364=DIRECTION('',(1.,0.,-1.99754898629133E-015));
#365=DIRECTION('',(-1.97959999540808E-015,0.,-1.));
#366=DIRECTION('',(0.,-1.,0.));
#367=DIRECTION('',(-1.,0.,0.));
#368=DIRECTION('',(0.,-1.,0.));
#369=DIRECTION('',(-1.,0.,0.));
#370=DIRECTION('',(0.,0.,1.));
#371=DIRECTION('',(0.,1.,0.));
#372=DIRECTION('',(1.,0.,0.));
#373=DIRECTION('',(0.,1.,0.));
#374=DIRECTION('',(1.,0.,0.));
#375=DIRECTION('',(-1.,0.,0.));
#376=DIRECTION('',(0.,0.,1.));
#377=DIRECTION('',(1.,0.,0.));
#378=DIRECTION('',(1.,0.,0.));
#379=DIRECTION('',(0.,0.,-1.));
#380=DIRECTION('',(1.,0.,0.));
#381=DIRECTION('',(0.,0.,-1.));
#382=DIRECTION('',(1.,0.,0.));
#383=DIRECTION('',(0.,0.,-1.));
#384=DIRECTION('',(1.,0.,0.));
#385=DIRECTION('',(0.,0.,-1.));
#386=DIRECTION('',(-1.,0.,0.));
#387=DIRECTION('',(0.,0.,1.));
#388=DIRECTION('',(1.,0.,0.));
#389=DIRECTION('',(1.,-6.20874544014528E-016,-6.20874544014528E-016));
#390=DIRECTION('',(-6.20874544014556E-016,0.,-1.));
#391=DIRECTION('',(1.,6.20874544014528E-016,6.20874544014528E-016));
#392=DIRECTION('',(6.20874544014556E-016,0.,-1.));
#393=DIRECTION('',(1.,0.,0.));
#394=DIRECTION('',(0.,0.,-1.));
#395=DIRECTION('',(0.258819045102524,-0.965925826289067,0.));
#396=DIRECTION('',(-1.,0.,0.));
#397=DIRECTION('',(-1.85371986807659E-018,0.,1.));
#398=DIRECTION('',(1.,0.,0.));
#399=DIRECTION('',(0.,0.,-1.));
#400=DIRECTION('',(1.,0.,0.));
#401=DIRECTION('',(1.,0.,0.));
#402=DIRECTION('',(0.,0.,-1.));
#403=DIRECTION('',(1.,0.,0.));
#404=DIRECTION('',(0.,0.,-1.));
#405=DIRECTION('',(1.,0.,0.));
#406=DIRECTION('',(0.,0.,-1.));
#407=DIRECTION('',(-1.,0.,0.));
#408=DIRECTION('',(0.,0.,1.));
#409=DIRECTION('',(1.,-6.18624998565024E-018,-6.18624998565024E-018));
#410=DIRECTION('',(-6.18624998565022E-018,0.,-1.));
#411=DIRECTION('',(1.,6.18624998565025E-018,6.18624998565024E-018));
#412=DIRECTION('',(-6.18624998565022E-018,1.,0.));
#413=DIRECTION('',(-0.707106781186549,-0.707106781186546,0.));
#414=DIRECTION('',(1.,6.1862499856482E-018,6.18624998564821E-018));
#415=DIRECTION('',(-4.27276621105194E-017,0.,-1.));
#416=DIRECTION('',(1.,0.,0.));
#417=DIRECTION('',(0.,0.,-1.));
#418=DIRECTION('',(1.,0.,0.));
#419=DIRECTION('',(0.,0.,-1.));
#420=DIRECTION('',(-1.,0.,0.));
#421=DIRECTION('',(-1.,0.,0.));
#422=DIRECTION('',(0.,0.,1.));
#423=DIRECTION('',(1.,0.,0.));
#424=DIRECTION('',(0.,0.,-1.));
#425=DIRECTION('',(1.,0.,0.));
#426=DIRECTION('',(0.,0.,-1.));
#427=DIRECTION('',(-1.,0.,0.));
#428=DIRECTION('',(0.,0.,1.));
#429=DIRECTION('',(1.,0.,0.));
#430=DIRECTION('',(0.,0.,-1.));
#431=DIRECTION('',(1.,0.,0.));
#432=DIRECTION('',(0.,0.,-1.));
#433=DIRECTION('',(-0.707106781186547,-0.707106781186547,0.));
#434=DIRECTION('',(1.,0.,0.));
#435=DIRECTION('',(8.10836311614939E-017,0.,-1.));
#436=DIRECTION('',(1.,-5.15443017672416E-016,-5.1544301767242E-016));
#437=DIRECTION('',(-5.15443017672406E-016,0.,-1.));
#438=DIRECTION('',(1.,5.15443017672419E-016,5.1544301767242E-016));
#439=DIRECTION('',(5.15443017672407E-016,0.,-1.));
#440=DIRECTION('',(-1.,0.,0.));
#441=DIRECTION('',(-1.,-5.15443017672419E-016,-5.1544301767242E-016));
#442=DIRECTION('',(-5.15443017672419E-016,0.,1.));
#443=DIRECTION('',(1.16331355301317E-016,-6.90982402640082E-018,1.));
#444=DIRECTION('',(0.993612491128491,-0.112845990063603,0.));
#445=CARTESIAN_POINT('',(0.,0.,0.));
#446=CARTESIAN_POINT('',(2.44000000000005,2.27580011922194E-013,2.93673659318908E-015));
#447=CARTESIAN_POINT('',(2.44000000000005,-0.292361078121303,-0.625000000000005));
#448=CARTESIAN_POINT('',(2.44000000000005,0.292361078121758,-0.625000000000005));
#449=CARTESIAN_POINT('',(2.44000000000005,2.27477567622431E-013,-0.625000000000005));
#450=CARTESIAN_POINT('',(2.44000000000005,-0.292361078121303,-0.625000000000005));
#451=CARTESIAN_POINT('',(1.88000000000011,2.27648308122035E-013,2.93673659318908E-015));
#452=CARTESIAN_POINT('',(1.88000000000011,0.292361078121758,-0.625000000000005));
#453=CARTESIAN_POINT('',(1.88000000000011,-0.292361078121303,-0.625000000000005));
#454=CARTESIAN_POINT('',(1.88000000000011,2.27477567622431E-013,-0.625000000000005));
#455=CARTESIAN_POINT('',(1.88000000000011,0.292361078121758,-0.625000000000005));
#456=CARTESIAN_POINT('',(2.16000000000008,-0.292361078121303,-0.625000000000005));
#457=CARTESIAN_POINT('',(2.16000000000008,0.292361078121758,-0.625000000000005));
#458=CARTESIAN_POINT('',(2.44000000000005,-0.292361078121303,-0.625000000000005));
#459=CARTESIAN_POINT('',(2.44000000000005,2.27494641672392E-013,5.46369598732853E-016));
#460=CARTESIAN_POINT('',(2.44000000000005,0.292361078121758,0.625));
#461=CARTESIAN_POINT('',(2.44000000000005,-0.292361078121303,0.625));
#462=CARTESIAN_POINT('',(2.44000000000005,2.27477567622431E-013,0.625));
#463=CARTESIAN_POINT('',(2.44000000000005,0.292361078121758,0.625));
#464=CARTESIAN_POINT('',(1.88000000000011,2.27614160022114E-013,4.78073398891246E-016));
#465=CARTESIAN_POINT('',(1.88000000000011,-0.292361078121303,0.625));
#466=CARTESIAN_POINT('',(1.88000000000011,0.292361078121758,0.625));
#467=CARTESIAN_POINT('',(1.88000000000011,2.27477567622431E-013,0.625));
#468=CARTESIAN_POINT('',(1.88000000000011,-0.292361078121303,0.625));
#469=CARTESIAN_POINT('',(2.16000000000008,0.292361078121758,0.625));
#470=CARTESIAN_POINT('',(2.16000000000008,-0.292361078121303,0.625));
#471=CARTESIAN_POINT('',(1.88000000000011,-0.292361078121303,0.625));
#472=CARTESIAN_POINT('',(1.625,0.,-1.53080849893419E-017));
#473=CARTESIAN_POINT('',(1.625,-0.5,0.));
#474=CARTESIAN_POINT('',(1.625,0.5,0.));
#475=CARTESIAN_POINT('',(1.625,-6.82961998416066E-017,-8.36042848309485E-017));
#476=CARTESIAN_POINT('',(1.625,0.,-1.34711147906226E-017));
#477=CARTESIAN_POINT('',(1.625,-0.440000000000055,0.));
#478=CARTESIAN_POINT('',(1.625,0.440000000000055,0.));
#479=CARTESIAN_POINT('',(1.625,0.,-1.34711147906226E-017));
#480=CARTESIAN_POINT('',(1.625,-0.5,-0.5));
#481=CARTESIAN_POINT('',(1.6875,0.440000000000055,0.));
#482=CARTESIAN_POINT('',(1.75,0.440000000000055,0.));
#483=CARTESIAN_POINT('',(1.75,8.48067438691651E-032,-1.34711147906225E-017));
#484=CARTESIAN_POINT('',(1.75,-0.440000000000055,0.));
#485=CARTESIAN_POINT('',(1.75,-8.48067438691651E-032,-1.34711147906226E-017));
#486=CARTESIAN_POINT('',(1.625,-9.56146797782492E-016,-6.82961998416067E-017));
#487=CARTESIAN_POINT('',(1.80894882233485,0.220000000000028,0.));
#488=CARTESIAN_POINT('',(1.86789764466971,0.,0.));
#489=CARTESIAN_POINT('',(1.75,-9.56146797782492E-016,-6.82961998416067E-017));
#490=CARTESIAN_POINT('',(0.,0.,0.));
#491=CARTESIAN_POINT('',(0.,0.5,6.12323399573677E-017));
#492=CARTESIAN_POINT('',(0.8125,0.5,0.));
#493=CARTESIAN_POINT('',(0.,-6.82961998416066E-017,-6.82961998416066E-017));
#494=CARTESIAN_POINT('',(0.,2.27400010457891E-013,-2.02066721859408E-017));
#495=CARTESIAN_POINT('',(0.,-0.660000000000082,0.));
#496=CARTESIAN_POINT('',(-2.27373675443232E-013,0.660000000000537,0.));
#497=CARTESIAN_POINT('',(0.,2.27400010457891E-013,-2.02066721859408E-017));
#498=CARTESIAN_POINT('',(0.,-0.660000000000082,-0.660000000000309));
#499=CARTESIAN_POINT('',(0.0299999999999727,2.27400010457891E-013,-2.11251572853004E-017));
#500=CARTESIAN_POINT('',(0.0299999999999727,-0.690000000000055,0.));
#501=CARTESIAN_POINT('',(0.0299999999999727,0.690000000000737,0.));
#502=CARTESIAN_POINT('',(0.0299999999999727,2.27400010457891E-013,-2.11251572853004E-017));
#503=CARTESIAN_POINT('',(0.0149999999998727,0.675000000000637,0.));
#504=CARTESIAN_POINT('',(0.0299999999999727,2.27400010457891E-013,1.32030426653114E-035));
#505=CARTESIAN_POINT('',(3.,2.27400010457891E-013,-2.11251572853004E-017));
#506=CARTESIAN_POINT('',(3.,-0.690000000000055,0.));
#507=CARTESIAN_POINT('',(3.,0.690000000000509,0.));
#508=CARTESIAN_POINT('',(3.,2.27400010457891E-013,-2.11251572853004E-017));
#509=CARTESIAN_POINT('',(1.51499999999999,0.690000000000509,0.));
#510=CARTESIAN_POINT('',(3.,2.27400010457891E-013,0.));
#511=CARTESIAN_POINT('',(3.,2.27536602857574E-013,-1.68127054761263E-016));
#512=CARTESIAN_POINT('',(3.,-1.02999999999997,0.));
#513=CARTESIAN_POINT('',(2.99999999999977,1.03000000000043,0.));
#514=CARTESIAN_POINT('',(3.,2.27263418058208E-013,-3.15346550780505E-017));
#515=CARTESIAN_POINT('',(3.,-1.02999999999997,-1.0300000000002));
#516=CARTESIAN_POINT('',(3.02999999999997,2.27400010457891E-013,-3.24531401774102E-017));
#517=CARTESIAN_POINT('',(3.02999999999997,-1.05999999999995,0.));
#518=CARTESIAN_POINT('',(3.02999999999997,1.06000000000063,0.));
#519=CARTESIAN_POINT('',(3.02999999999997,2.27400010457891E-013,-3.24531401774102E-017));
#520=CARTESIAN_POINT('',(3.01499999999987,1.04500000000053,0.));
#521=CARTESIAN_POINT('',(3.02999999999997,2.27400010457891E-013,0.));
#522=CARTESIAN_POINT('',(4.19000000000005,2.27400010457891E-013,-3.24531401774103E-017));
#523=CARTESIAN_POINT('',(4.19000000000005,-1.05999999999995,0.));
#524=CARTESIAN_POINT('',(4.19000000000005,1.0600000000004,0.));
#525=CARTESIAN_POINT('',(4.19000000000005,2.27400010457891E-013,-3.245314017741E-017));
#526=CARTESIAN_POINT('',(3.61000000000001,1.0600000000004,0.));
#527=CARTESIAN_POINT('',(4.19000000000005,2.27400010457891E-013,1.40811197367665E-031));
#528=CARTESIAN_POINT('',(-5.14333333335019,-5.37149611754236E-013,4.64414158922925E-015));
#529=MECHANICAL_DESIGN_GEOMETRIC_PRESENTATION_REPRESENTATION('',(#24),#530);
#530=(
GEOMETRIC_REPRESENTATION_CONTEXT(3)
GLOBAL_UNCERTAINTY_ASSIGNED_CONTEXT((#531))
GLOBAL_UNIT_ASSIGNED_CONTEXT((#536,#533,#532))
REPRESENTATION_CONTEXT('E164_iges','TOP_LEVEL_ASSEMBLY_PART')
);
#531=UNCERTAINTY_MEASURE_WITH_UNIT(LENGTH_MEASURE(7.8740157480315E-007),
#536,'DISTANCE_ACCURACY_VALUE','Maximum Tolerance applied to model');
#532=(
NAMED_UNIT(*)
SI_UNIT($,.STERADIAN.)
SOLID_ANGLE_UNIT()
);
#533=(
CONVERSION_BASED_UNIT('DEGREE',#534)
NAMED_UNIT(#538)
PLANE_ANGLE_UNIT()
);
#534=PLANE_ANGLE_MEASURE_WITH_UNIT(PLANE_ANGLE_MEASURE(0.0174532925),#535);
#535=(
NAMED_UNIT(*)
PLANE_ANGLE_UNIT()
SI_UNIT($,.RADIAN.)
);
#536=(
CONVERSION_BASED_UNIT('INCH',#539)
LENGTH_UNIT()
NAMED_UNIT(#537)
);
#537=DIMENSIONAL_EXPONENTS(1.,0.,0.,0.,0.,0.,0.);
#538=DIMENSIONAL_EXPONENTS(0.,0.,0.,0.,0.,0.,0.);
#539=LENGTH_MEASURE_WITH_UNIT(LENGTH_MEASURE(25.4),#540);
#540=(
LENGTH_UNIT()
NAMED_UNIT(*)
SI_UNIT(.MILLI.,.METRE.)
);
ENDSEC;
END-ISO-10303-21;
