ISO-10303-21;
HEADER;
FILE_DESCRIPTION((''),'2;1');
FILE_NAME('E45014.stp','2000-07-05T17:35:46',(''),(''),'AutoCAD STEP 2000','AutoCAD 2000',', , ');
FILE_SCHEMA(('CONFIG_CONTROL_DESIGN'));
ENDSEC;
DATA;
#8=(NAMED_UNIT(*)PLANE_ANGLE_UNIT()SI_UNIT($,.RADIAN.));
#9=DIMENSIONAL_EXPONENTS(0.0,0.0,0.0,0.0,0.0,0.0,0.0);
#10=PLANE_ANGLE_MEASURE_WITH_UNIT(PLANE_ANGLE_MEASURE(0.017453292500000),#8);
#14=(CONVERSION_BASED_UNIT('DEGREE',#10)NAMED_UNIT(#9)PLANE_ANGLE_UNIT());
#18=(NAMED_UNIT(*)SI_UNIT($,.STERADIAN.)SOLID_ANGLE_UNIT());
#20=DIMENSIONAL_EXPONENTS(1.0,0.0,0.0,0.0,0.0,0.0,0.0);
#24=(LENGTH_UNIT()NAMED_UNIT(*)SI_UNIT(.MILLI.,.METRE.));
#25=LENGTH_MEASURE_WITH_UNIT(LENGTH_MEASURE(25.399999999999999),#24);
#27=(CONVERSION_BASED_UNIT('INCH',#25)LENGTH_UNIT()NAMED_UNIT(#20));
#28=UNCERTAINTY_MEASURE_WITH_UNIT(LENGTH_MEASURE(0.000001000000000),#27,'DISTANCE_ACCURACY_VALUE','');
#33=(GEOMETRIC_REPRESENTATION_CONTEXT(3)GLOBAL_UNCERTAINTY_ASSIGNED_CONTEXT((#28))GLOBAL_UNIT_ASSIGNED_CONTEXT((#14,#18,#27))REPRESENTATION_CONTEXT('None','None'));
#34=APPLICATION_CONTEXT('CONFIGURATION CONTROLLED 3D DESIGNS OF MECHANICAL PARTS AND ASSEMBLIES');
#35=APPLICATION_PROTOCOL_DEFINITION('INTERNATIONAL STANDARD','config_control_design',1995,#34);
#36=MECHANICAL_CONTEXT('3D Mechanical Parts',#34,'mechanical');
#37=PRODUCT('Product','Product','Overall Model',(#36));
#38=PRODUCT_RELATED_PRODUCT_CATEGORY('detail',$,(#37));
#39=PRODUCT_CATEGORY('part',$);
#40=PRODUCT_CATEGORY_RELATIONSHIP('None','None',#39,#38);
#41=PERSON('1','Design','Joe',$,$,$);
#42=ORGANIZATION($,'None','None');
#43=PERSON_AND_ORGANIZATION(#41,#42);
#44=PERSON_AND_ORGANIZATION_ROLE('design_owner');
#45=CC_DESIGN_PERSON_AND_ORGANIZATION_ASSIGNMENT(#43,#44,(#37));
#46=PRODUCT_DEFINITION_FORMATION_WITH_SPECIFIED_SOURCE('None','None',#37,.NOT_KNOWN.);
#47=PERSON('2','Creator','Joe',$,$,$);
#48=ORGANIZATION($,'None','None');
#49=PERSON_AND_ORGANIZATION(#47,#48);
#50=PERSON_AND_ORGANIZATION_ROLE('creator');
#51=CC_DESIGN_PERSON_AND_ORGANIZATION_ASSIGNMENT(#49,#50,(#46));
#52=PERSON('3','Supplier','Joe',$,$,$);
#53=ORGANIZATION($,'None','None');
#54=PERSON_AND_ORGANIZATION(#52,#53);
#55=PERSON_AND_ORGANIZATION_ROLE('design_supplier');
#56=CC_DESIGN_PERSON_AND_ORGANIZATION_ASSIGNMENT(#54,#55,(#46));
#57=APPROVAL_STATUS('approved');
#58=APPROVAL(#57,'None');
#59=PERSON('4','Approver','Joe',$,$,$);
#60=ORGANIZATION($,'None','None');
#61=PERSON_AND_ORGANIZATION(#59,#60);
#62=APPROVAL_ROLE('None');
#63=APPROVAL_PERSON_ORGANIZATION(#61,#58,#62);
#64=COORDINATED_UNIVERSAL_TIME_OFFSET(8,$,.BEHIND.);
#65=CALENDAR_DATE(1996,29,5);
#66=LOCAL_TIME(12,0,0.0,#64);
#67=DATE_AND_TIME(#65,#66);
#68=APPROVAL_DATE_TIME(#67,#58);
#69=CC_DESIGN_APPROVAL(#58,(#46));
#70=SECURITY_CLASSIFICATION_LEVEL('unclassified');
#71=SECURITY_CLASSIFICATION('security','None',#70);
#72=CC_DESIGN_SECURITY_CLASSIFICATION(#71,(#46));
#73=APPROVAL_STATUS('approved');
#74=APPROVAL(#73,'None');
#75=PERSON('5','Approver','Joe',$,$,$);
#76=ORGANIZATION($,'None','None');
#77=PERSON_AND_ORGANIZATION(#75,#76);
#78=APPROVAL_ROLE('None');
#79=APPROVAL_PERSON_ORGANIZATION(#77,#74,#78);
#80=COORDINATED_UNIVERSAL_TIME_OFFSET(8,$,.BEHIND.);
#81=CALENDAR_DATE(1996,29,5);
#82=LOCAL_TIME(12,0,0.0,#80);
#83=DATE_AND_TIME(#81,#82);
#84=APPROVAL_DATE_TIME(#83,#74);
#85=CC_DESIGN_APPROVAL(#74,(#71));
#86=PERSON('6','Classifier','Joe',$,$,$);
#87=ORGANIZATION($,'None','None');
#88=PERSON_AND_ORGANIZATION(#86,#87);
#89=PERSON_AND_ORGANIZATION_ROLE('classification_officer');
#90=CC_DESIGN_PERSON_AND_ORGANIZATION_ASSIGNMENT(#88,#89,(#71));
#91=COORDINATED_UNIVERSAL_TIME_OFFSET(8,$,.BEHIND.);
#92=CALENDAR_DATE(1996,29,5);
#93=LOCAL_TIME(12,0,0.0,#91);
#94=DATE_AND_TIME(#92,#93);
#95=DATE_TIME_ROLE('classification_date');
#96=CC_DESIGN_DATE_AND_TIME_ASSIGNMENT(#94,#95,(#71));
#97=DESIGN_CONTEXT('Design Context',#34,'design');
#98=DOCUMENT_TYPE('cad_filename');
#99=DOCUMENT('None','None','None',#98);
#100=PRODUCT_DEFINITION_WITH_ASSOCIATED_DOCUMENTS('None','None',#46,#97,(#99));
#101=PERSON('7','Creator','Joe',$,$,$);
#102=ORGANIZATION($,'None','None');
#103=PERSON_AND_ORGANIZATION(#101,#102);
#104=PERSON_AND_ORGANIZATION_ROLE('creator');
#105=CC_DESIGN_PERSON_AND_ORGANIZATION_ASSIGNMENT(#103,#104,(#100));
#106=COORDINATED_UNIVERSAL_TIME_OFFSET(8,$,.BEHIND.);
#107=CALENDAR_DATE(1996,29,5);
#108=LOCAL_TIME(12,0,0.0,#106);
#109=DATE_AND_TIME(#107,#108);
#110=DATE_TIME_ROLE('creation_date');
#111=CC_DESIGN_DATE_AND_TIME_ASSIGNMENT(#109,#110,(#100));
#112=APPROVAL_STATUS('approved');
#113=APPROVAL(#112,'None');
#114=PERSON('8','Approver','Joe',$,$,$);
#115=ORGANIZATION($,'None','None');
#116=PERSON_AND_ORGANIZATION(#114,#115);
#117=APPROVAL_ROLE('None');
#118=APPROVAL_PERSON_ORGANIZATION(#116,#113,#117);
#119=COORDINATED_UNIVERSAL_TIME_OFFSET(8,$,.BEHIND.);
#120=CALENDAR_DATE(1996,29,5);
#121=LOCAL_TIME(12,0,0.0,#119);
#122=DATE_AND_TIME(#120,#121);
#123=APPROVAL_DATE_TIME(#122,#113);
#124=CC_DESIGN_APPROVAL(#113,(#100));
#125=CARTESIAN_POINT('NONE',(0.0,0.0,0.0));
#126=DIRECTION('NONE',(0.0,0.0,1.0));
#127=DIRECTION('NONE',(1.0,0.0,0.0));
#128=AXIS2_PLACEMENT_3D('NONE',#125,#126,#127);
#129=SHAPE_REPRESENTATION('SR1',(#128),#33);
#130=PRODUCT_DEFINITION_SHAPE('PDS1','Test Part',#100);
#131=SHAPE_DEFINITION_REPRESENTATION(#130,#129);
#132=CARTESIAN_POINT('',(0.0,0.0,-0.750000000000000));
#133=DIRECTION('',(0.0,0.0,-1.0));
#134=DIRECTION('',(-1.0,0.0,0.0));
#135=AXIS2_PLACEMENT_3D('',#132,#133,#134);
#136=CYLINDRICAL_SURFACE('',#135,1.750000000000000);
#137=CARTESIAN_POINT('',(-1.750000000000000,0.0,0.0));
#138=VERTEX_POINT('',#137);
#139=CARTESIAN_POINT('',(-1.750000000000000,0.0,-1.500000000000000));
#140=VERTEX_POINT('',#139);
#141=CARTESIAN_POINT('',(-1.750000000000000,0.0,0.0));
#142=DIRECTION('',(0.0,0.0,-1.0));
#143=VECTOR('',#142,1.500000000000000);
#144=LINE('',#141,#143);
#145=EDGE_CURVE('',#138,#140,#144,.T.);
#146=ORIENTED_EDGE('',*,*,#145,.F.);
#147=CARTESIAN_POINT('',(1.750000000000000,-1.222019E-014,0.0));
#148=VERTEX_POINT('',#147);
#149=CARTESIAN_POINT('',(0.0,0.0,0.0));
#150=DIRECTION('',(0.0,0.0,1.0));
#151=DIRECTION('',(-1.0,0.0,0.0));
#152=AXIS2_PLACEMENT_3D('',#149,#150,#151);
#153=CIRCLE('',#152,1.750000000000000);
#154=EDGE_CURVE('',#148,#138,#153,.T.);
#155=ORIENTED_EDGE('',*,*,#154,.F.);
#156=CARTESIAN_POINT('',(1.750000000000000,-1.222019E-014,-1.500000000000000));
#157=VERTEX_POINT('',#156);
#158=CARTESIAN_POINT('',(1.750000000000000,-1.222019E-014,-1.500000000000000));
#159=DIRECTION('',(0.0,0.0,1.0));
#160=VECTOR('',#159,1.500000000000000);
#161=LINE('',#158,#160);
#162=EDGE_CURVE('',#157,#148,#161,.T.);
#163=ORIENTED_EDGE('',*,*,#162,.F.);
#164=CARTESIAN_POINT('',(0.0,0.0,-1.500000000000000));
#165=DIRECTION('',(0.0,0.0,-1.0));
#166=DIRECTION('',(-1.0,0.0,0.0));
#167=AXIS2_PLACEMENT_3D('',#164,#165,#166);
#168=CIRCLE('',#167,1.750000000000000);
#169=EDGE_CURVE('',#140,#157,#168,.T.);
#170=ORIENTED_EDGE('',*,*,#169,.F.);
#171=EDGE_LOOP('',(#146,#155,#163,#170));
#172=FACE_OUTER_BOUND('',#171,.T.);
#173=ADVANCED_FACE('',(#172),#136,.T.);
#174=CARTESIAN_POINT('',(0.0,0.0,-0.125000000000000));
#175=DIRECTION('',(0.0,0.0,-1.0));
#176=DIRECTION('',(-1.0,0.0,0.0));
#177=AXIS2_PLACEMENT_3D('',#174,#175,#176);
#178=CYLINDRICAL_SURFACE('',#177,0.812500000000000);
#179=CARTESIAN_POINT('',(-0.812500000000000,0.0,-0.250000000000000));
#180=VERTEX_POINT('',#179);
#181=CARTESIAN_POINT('',(-0.812500000000000,0.0,0.0));
#182=VERTEX_POINT('',#181);
#183=CARTESIAN_POINT('',(-0.812500000000000,0.0,-0.250000000000000));
#184=DIRECTION('',(0.0,0.0,1.0));
#185=VECTOR('',#184,0.250000000000000);
#186=LINE('',#183,#185);
#187=EDGE_CURVE('',#180,#182,#186,.T.);
#188=ORIENTED_EDGE('',*,*,#187,.F.);
#189=CARTESIAN_POINT('',(0.812500000000000,-5.627738E-015,-0.250000000000000));
#190=VERTEX_POINT('',#189);
#191=CARTESIAN_POINT('',(0.0,0.0,-0.250000000000000));
#192=DIRECTION('',(0.0,0.0,-1.0));
#193=DIRECTION('',(-1.0,0.0,0.0));
#194=AXIS2_PLACEMENT_3D('',#191,#192,#193);
#195=CIRCLE('',#194,0.812500000000000);
#196=EDGE_CURVE('',#190,#180,#195,.F.);
#197=ORIENTED_EDGE('',*,*,#196,.F.);
#198=CARTESIAN_POINT('',(0.812500000000000,-5.673660E-015,0.0));
#199=VERTEX_POINT('',#198);
#200=CARTESIAN_POINT('',(0.812500000000000,-5.673660E-015,0.0));
#201=DIRECTION('',(0.0,0.0,-1.0));
#202=VECTOR('',#201,0.250000000000000);
#203=LINE('',#200,#202);
#204=EDGE_CURVE('',#199,#190,#203,.T.);
#205=ORIENTED_EDGE('',*,*,#204,.F.);
#206=CARTESIAN_POINT('',(0.0,0.0,0.0));
#207=DIRECTION('',(0.0,0.0,-1.0));
#208=DIRECTION('',(-1.0,0.0,0.0));
#209=AXIS2_PLACEMENT_3D('',#206,#207,#208);
#210=CIRCLE('',#209,0.812500000000000);
#211=EDGE_CURVE('',#182,#199,#210,.T.);
#212=ORIENTED_EDGE('',*,*,#211,.F.);
#213=EDGE_LOOP('',(#188,#197,#205,#212));
#214=FACE_OUTER_BOUND('',#213,.T.);
#215=ADVANCED_FACE('',(#214),#178,.F.);
#216=CARTESIAN_POINT('',(0.0,8.900718E-017,-0.484548546858286));
#217=DIRECTION('',(0.0,-1.836910E-016,1.0));
#218=DIRECTION('',(-1.0,0.0,0.0));
#219=AXIS2_PLACEMENT_3D('',#216,#217,#218);
#220=CONICAL_SURFACE('',#219,0.406250000000000,59.999999999999972);
#221=CARTESIAN_POINT('',(0.0,1.320916E-016,-0.719097093716572));
#222=VERTEX_POINT('',#221);
#223=CARTESIAN_POINT('',(0.812500000000000,-5.627738E-015,-0.250000000000000));
#224=DIRECTION('',(-0.866025403784438,6.139272E-015,-0.500000000000001));
#225=VECTOR('',#224,0.938194187433142);
#226=LINE('',#223,#225);
#227=EDGE_CURVE('',#190,#222,#226,.T.);
#228=ORIENTED_EDGE('',*,*,#227,.T.);
#229=CARTESIAN_POINT('',(0.0,1.320916E-016,-0.719097093716572));
#230=DIRECTION('',(-0.866025403784438,-1.407935E-016,0.500000000000001));
#231=VECTOR('',#230,0.938194187433142);
#232=LINE('',#229,#231);
#233=EDGE_CURVE('',#222,#180,#232,.T.);
#234=ORIENTED_EDGE('',*,*,#233,.T.);
#235=CARTESIAN_POINT('',(0.0,0.0,-0.250000000000000));
#236=DIRECTION('',(0.0,0.0,-1.0));
#237=DIRECTION('',(-1.0,0.0,0.0));
#238=AXIS2_PLACEMENT_3D('',#235,#236,#237);
#239=CIRCLE('',#238,0.812500000000000);
#240=EDGE_CURVE('',#180,#190,#239,.F.);
#241=ORIENTED_EDGE('',*,*,#240,.T.);
#242=EDGE_LOOP('',(#228,#234,#241));
#243=FACE_OUTER_BOUND('',#242,.T.);
#244=ADVANCED_FACE('',(#243),#220,.F.);
#245=CARTESIAN_POINT('',(0.0,8.900718E-017,-0.484548546858286));
#246=DIRECTION('',(0.0,-1.836910E-016,1.0));
#247=DIRECTION('',(-1.0,0.0,0.0));
#248=AXIS2_PLACEMENT_3D('',#245,#246,#247);
#249=CONICAL_SURFACE('',#248,0.406250000000000,59.999999999999972);
#250=ORIENTED_EDGE('',*,*,#227,.F.);
#251=ORIENTED_EDGE('',*,*,#196,.T.);
#252=ORIENTED_EDGE('',*,*,#233,.F.);
#253=EDGE_LOOP('',(#250,#251,#252));
#254=FACE_OUTER_BOUND('',#253,.T.);
#255=ADVANCED_FACE('',(#254),#249,.F.);
#256=CARTESIAN_POINT('',(0.0,0.0,-0.125000000000000));
#257=DIRECTION('',(0.0,0.0,-1.0));
#258=DIRECTION('',(-1.0,0.0,0.0));
#259=AXIS2_PLACEMENT_3D('',#256,#257,#258);
#260=CYLINDRICAL_SURFACE('',#259,0.812500000000000);
#261=ORIENTED_EDGE('',*,*,#187,.T.);
#262=CARTESIAN_POINT('',(0.0,0.0,0.0));
#263=DIRECTION('',(0.0,0.0,-1.0));
#264=DIRECTION('',(-1.0,0.0,0.0));
#265=AXIS2_PLACEMENT_3D('',#262,#263,#264);
#266=CIRCLE('',#265,0.812500000000000);
#267=EDGE_CURVE('',#199,#182,#266,.T.);
#268=ORIENTED_EDGE('',*,*,#267,.F.);
#269=ORIENTED_EDGE('',*,*,#204,.T.);
#270=ORIENTED_EDGE('',*,*,#240,.F.);
#271=EDGE_LOOP('',(#261,#268,#269,#270));
#272=FACE_OUTER_BOUND('',#271,.T.);
#273=ADVANCED_FACE('',(#272),#260,.F.);
#274=CARTESIAN_POINT('',(0.0,0.0,-0.750000000000000));
#275=DIRECTION('',(0.0,0.0,-1.0));
#276=DIRECTION('',(-1.0,0.0,0.0));
#277=AXIS2_PLACEMENT_3D('',#274,#275,#276);
#278=CYLINDRICAL_SURFACE('',#277,1.750000000000000);
#279=ORIENTED_EDGE('',*,*,#145,.T.);
#280=CARTESIAN_POINT('',(0.0,0.0,-1.500000000000000));
#281=DIRECTION('',(0.0,0.0,-1.0));
#282=DIRECTION('',(-1.0,0.0,0.0));
#283=AXIS2_PLACEMENT_3D('',#280,#281,#282);
#284=CIRCLE('',#283,1.750000000000000);
#285=EDGE_CURVE('',#157,#140,#284,.T.);
#286=ORIENTED_EDGE('',*,*,#285,.F.);
#287=ORIENTED_EDGE('',*,*,#162,.T.);
#288=CARTESIAN_POINT('',(0.0,0.0,0.0));
#289=DIRECTION('',(0.0,0.0,1.0));
#290=DIRECTION('',(-1.0,0.0,0.0));
#291=AXIS2_PLACEMENT_3D('',#288,#289,#290);
#292=CIRCLE('',#291,1.750000000000000);
#293=EDGE_CURVE('',#138,#148,#292,.T.);
#294=ORIENTED_EDGE('',*,*,#293,.F.);
#295=EDGE_LOOP('',(#279,#286,#287,#294));
#296=FACE_OUTER_BOUND('',#295,.T.);
#297=ADVANCED_FACE('',(#296),#278,.T.);
#298=CARTESIAN_POINT('',(0.0,0.0,0.0));
#299=DIRECTION('',(0.0,0.0,1.0));
#300=DIRECTION('',(1.0,0.0,0.0));
#301=AXIS2_PLACEMENT_3D('',#298,#299,#300);
#302=PLANE('',#301);
#303=ORIENTED_EDGE('',*,*,#293,.T.);
#304=ORIENTED_EDGE('',*,*,#154,.T.);
#305=EDGE_LOOP('',(#303,#304));
#306=FACE_OUTER_BOUND('',#305,.T.);
#307=ORIENTED_EDGE('',*,*,#211,.T.);
#308=ORIENTED_EDGE('',*,*,#267,.T.);
#309=EDGE_LOOP('',(#307,#308));
#310=FACE_BOUND('',#309,.T.);
#311=ADVANCED_FACE('',(#306,#310),#302,.T.);
#312=CARTESIAN_POINT('',(0.0,0.0,-1.500000000000000));
#313=DIRECTION('',(0.0,0.0,-1.0));
#314=DIRECTION('',(-1.0,0.0,0.0));
#315=AXIS2_PLACEMENT_3D('',#312,#313,#314);
#316=PLANE('',#315);
#317=ORIENTED_EDGE('',*,*,#169,.T.);
#318=ORIENTED_EDGE('',*,*,#285,.T.);
#319=EDGE_LOOP('',(#317,#318));
#320=FACE_OUTER_BOUND('',#319,.T.);
#321=ADVANCED_FACE('',(#320),#316,.T.);
#322=CLOSED_SHELL('',(#173,#215,#244,#255,#273,#297,#311,#321));
#323=MANIFOLD_SOLID_BREP('F5',#322);
#324=ADVANCED_BREP_SHAPE_REPRESENTATION('ABSR1',(#323),#33);
#325=SHAPE_REPRESENTATION_RELATIONSHIP('SRRPL1',' ',#324,#129);
ENDSEC;
END-ISO-10303-21;
