ISO-10303-21;
HEADER;
/* Generated by software containing ST-Developer
 * from STEP Tools, Inc. (www.steptools.com) 
 */

FILE_DESCRIPTION(
/* description */ ('FLANGE'),
/* implementation_level */ '2;1');

FILE_NAME(
/* name */ 'M:\\E&E\\Standards\\Clamps\\CRSF-50\\CRSF-50.stp',
/* time_stamp */ '2019-11-12T16:27:31-05:00',
/* author */ ('E&E CP'),
/* organization */ (''),
/* preprocessor_version */ 'ST-DEVELOPER v17',
/* originating_system */ 'Autodesk Inventor 2018',
/* authorisation */ '');

FILE_SCHEMA (('AUTOMOTIVE_DESIGN { 1 0 10303 214 3 1 1 }'));
ENDSEC;

DATA;
#10=MECHANICAL_DESIGN_GEOMETRIC_PRESENTATION_REPRESENTATION('',(#13),#712);
#11=SHAPE_REPRESENTATION_RELATIONSHIP('SRR','None',#719,#12);
#12=ADVANCED_BREP_SHAPE_REPRESENTATION('',(#14),#711);
#13=STYLED_ITEM('',(#728),#14);
#14=MANIFOLD_SOLID_BREP('Solid1',#410);
#15=FACE_BOUND('',#72,.T.);
#16=FACE_BOUND('',#73,.T.);
#17=FACE_BOUND('',#74,.T.);
#18=FACE_BOUND('',#75,.T.);
#19=FACE_BOUND('',#76,.T.);
#20=FACE_BOUND('',#77,.T.);
#21=FACE_BOUND('',#78,.T.);
#22=FACE_BOUND('',#79,.T.);
#23=FACE_BOUND('',#80,.T.);
#24=FACE_BOUND('',#81,.T.);
#25=FACE_BOUND('',#82,.T.);
#26=FACE_BOUND('',#88,.T.);
#27=FACE_BOUND('',#89,.T.);
#28=FACE_BOUND('',#90,.T.);
#29=FACE_BOUND('',#91,.T.);
#30=FACE_BOUND('',#92,.T.);
#31=FACE_BOUND('',#93,.T.);
#32=FACE_BOUND('',#94,.T.);
#33=FACE_BOUND('',#95,.T.);
#34=FACE_BOUND('',#96,.T.);
#35=FACE_BOUND('',#97,.T.);
#36=FACE_BOUND('',#98,.T.);
#37=PLANE('',#467);
#38=PLANE('',#468);
#39=PLANE('',#469);
#40=PLANE('',#470);
#41=PLANE('',#471);
#42=PLANE('',#472);
#43=FACE_OUTER_BOUND('',#60,.T.);
#44=FACE_OUTER_BOUND('',#61,.T.);
#45=FACE_OUTER_BOUND('',#62,.T.);
#46=FACE_OUTER_BOUND('',#63,.T.);
#47=FACE_OUTER_BOUND('',#64,.T.);
#48=FACE_OUTER_BOUND('',#65,.T.);
#49=FACE_OUTER_BOUND('',#66,.T.);
#50=FACE_OUTER_BOUND('',#67,.T.);
#51=FACE_OUTER_BOUND('',#68,.T.);
#52=FACE_OUTER_BOUND('',#69,.T.);
#53=FACE_OUTER_BOUND('',#70,.T.);
#54=FACE_OUTER_BOUND('',#71,.T.);
#55=FACE_OUTER_BOUND('',#83,.T.);
#56=FACE_OUTER_BOUND('',#84,.T.);
#57=FACE_OUTER_BOUND('',#85,.T.);
#58=FACE_OUTER_BOUND('',#86,.T.);
#59=FACE_OUTER_BOUND('',#87,.T.);
#60=EDGE_LOOP('',(#272,#273,#274,#275,#276));
#61=EDGE_LOOP('',(#277,#278,#279,#280,#281));
#62=EDGE_LOOP('',(#282,#283,#284,#285,#286));
#63=EDGE_LOOP('',(#287,#288,#289,#290,#291));
#64=EDGE_LOOP('',(#292,#293,#294,#295,#296));
#65=EDGE_LOOP('',(#297,#298,#299,#300,#301));
#66=EDGE_LOOP('',(#302,#303,#304,#305,#306));
#67=EDGE_LOOP('',(#307,#308,#309,#310,#311));
#68=EDGE_LOOP('',(#312,#313,#314,#315,#316));
#69=EDGE_LOOP('',(#317,#318,#319,#320,#321));
#70=EDGE_LOOP('',(#322,#323,#324,#325));
#71=EDGE_LOOP('',(#326,#327,#328,#329));
#72=EDGE_LOOP('',(#330));
#73=EDGE_LOOP('',(#331));
#74=EDGE_LOOP('',(#332));
#75=EDGE_LOOP('',(#333));
#76=EDGE_LOOP('',(#334));
#77=EDGE_LOOP('',(#335));
#78=EDGE_LOOP('',(#336));
#79=EDGE_LOOP('',(#337));
#80=EDGE_LOOP('',(#338));
#81=EDGE_LOOP('',(#339));
#82=EDGE_LOOP('',(#340));
#83=EDGE_LOOP('',(#341,#342,#343,#344));
#84=EDGE_LOOP('',(#345,#346,#347,#348));
#85=EDGE_LOOP('',(#349,#350,#351,#352));
#86=EDGE_LOOP('',(#353,#354,#355,#356));
#87=EDGE_LOOP('',(#357,#358,#359,#360));
#88=EDGE_LOOP('',(#361,#362));
#89=EDGE_LOOP('',(#363,#364));
#90=EDGE_LOOP('',(#365,#366));
#91=EDGE_LOOP('',(#367,#368));
#92=EDGE_LOOP('',(#369,#370));
#93=EDGE_LOOP('',(#371,#372));
#94=EDGE_LOOP('',(#373,#374));
#95=EDGE_LOOP('',(#375,#376));
#96=EDGE_LOOP('',(#377,#378));
#97=EDGE_LOOP('',(#379,#380));
#98=EDGE_LOOP('',(#381));
#99=LINE('',#603,#122);
#100=LINE('',#611,#123);
#101=LINE('',#619,#124);
#102=LINE('',#627,#125);
#103=LINE('',#635,#126);
#104=LINE('',#643,#127);
#105=LINE('',#651,#128);
#106=LINE('',#659,#129);
#107=LINE('',#667,#130);
#108=LINE('',#675,#131);
#109=LINE('',#681,#132);
#110=LINE('',#686,#133);
#111=LINE('',#688,#134);
#112=LINE('',#690,#135);
#113=LINE('',#691,#136);
#114=LINE('',#694,#137);
#115=LINE('',#696,#138);
#116=LINE('',#697,#139);
#117=LINE('',#700,#140);
#118=LINE('',#701,#141);
#119=LINE('',#704,#142);
#120=LINE('',#705,#143);
#121=LINE('',#707,#144);
#122=VECTOR('',#481,3.);
#123=VECTOR('',#490,3.);
#124=VECTOR('',#499,3.15);
#125=VECTOR('',#508,3.15);
#126=VECTOR('',#517,3.15);
#127=VECTOR('',#526,3.15);
#128=VECTOR('',#535,2.4585);
#129=VECTOR('',#544,2.4585);
#130=VECTOR('',#553,2.4585);
#131=VECTOR('',#562,2.4585);
#132=VECTOR('',#569,18.55);
#133=VECTOR('',#574,10.);
#134=VECTOR('',#575,10.);
#135=VECTOR('',#576,10.);
#136=VECTOR('',#577,10.);
#137=VECTOR('',#580,10.);
#138=VECTOR('',#581,10.);
#139=VECTOR('',#582,10.);
#140=VECTOR('',#585,10.);
#141=VECTOR('',#586,10.);
#142=VECTOR('',#589,10.);
#143=VECTOR('',#590,10.);
#144=VECTOR('',#593,10.);
#145=CIRCLE('',#425,3.);
#146=CIRCLE('',#426,3.);
#147=CIRCLE('',#427,3.);
#148=CIRCLE('',#429,3.);
#149=CIRCLE('',#430,3.);
#150=CIRCLE('',#431,3.);
#151=CIRCLE('',#433,3.15);
#152=CIRCLE('',#434,3.15);
#153=CIRCLE('',#435,3.15);
#154=CIRCLE('',#437,3.15);
#155=CIRCLE('',#438,3.15);
#156=CIRCLE('',#439,3.15);
#157=CIRCLE('',#441,3.15);
#158=CIRCLE('',#442,3.15);
#159=CIRCLE('',#443,3.15);
#160=CIRCLE('',#445,3.15);
#161=CIRCLE('',#446,3.15);
#162=CIRCLE('',#447,3.15);
#163=CIRCLE('',#449,2.4585);
#164=CIRCLE('',#450,2.4585);
#165=CIRCLE('',#451,2.4585);
#166=CIRCLE('',#453,2.4585);
#167=CIRCLE('',#454,2.4585);
#168=CIRCLE('',#455,2.4585);
#169=CIRCLE('',#457,2.4585);
#170=CIRCLE('',#458,2.4585);
#171=CIRCLE('',#459,2.4585);
#172=CIRCLE('',#461,2.4585);
#173=CIRCLE('',#462,2.4585);
#174=CIRCLE('',#463,2.4585);
#175=CIRCLE('',#465,18.55);
#176=CIRCLE('',#466,18.55);
#177=VERTEX_POINT('',#598);
#178=VERTEX_POINT('',#599);
#179=VERTEX_POINT('',#602);
#180=VERTEX_POINT('',#606);
#181=VERTEX_POINT('',#607);
#182=VERTEX_POINT('',#610);
#183=VERTEX_POINT('',#614);
#184=VERTEX_POINT('',#615);
#185=VERTEX_POINT('',#618);
#186=VERTEX_POINT('',#622);
#187=VERTEX_POINT('',#623);
#188=VERTEX_POINT('',#626);
#189=VERTEX_POINT('',#630);
#190=VERTEX_POINT('',#631);
#191=VERTEX_POINT('',#634);
#192=VERTEX_POINT('',#638);
#193=VERTEX_POINT('',#639);
#194=VERTEX_POINT('',#642);
#195=VERTEX_POINT('',#646);
#196=VERTEX_POINT('',#647);
#197=VERTEX_POINT('',#650);
#198=VERTEX_POINT('',#654);
#199=VERTEX_POINT('',#655);
#200=VERTEX_POINT('',#658);
#201=VERTEX_POINT('',#662);
#202=VERTEX_POINT('',#663);
#203=VERTEX_POINT('',#666);
#204=VERTEX_POINT('',#670);
#205=VERTEX_POINT('',#671);
#206=VERTEX_POINT('',#674);
#207=VERTEX_POINT('',#678);
#208=VERTEX_POINT('',#680);
#209=VERTEX_POINT('',#684);
#210=VERTEX_POINT('',#685);
#211=VERTEX_POINT('',#687);
#212=VERTEX_POINT('',#689);
#213=VERTEX_POINT('',#693);
#214=VERTEX_POINT('',#695);
#215=VERTEX_POINT('',#699);
#216=VERTEX_POINT('',#703);
#217=EDGE_CURVE('',#177,#178,#145,.T.);
#218=EDGE_CURVE('',#178,#177,#146,.T.);
#219=EDGE_CURVE('',#178,#179,#99,.T.);
#220=EDGE_CURVE('',#179,#179,#147,.T.);
#221=EDGE_CURVE('',#180,#181,#148,.T.);
#222=EDGE_CURVE('',#181,#180,#149,.T.);
#223=EDGE_CURVE('',#181,#182,#100,.T.);
#224=EDGE_CURVE('',#182,#182,#150,.T.);
#225=EDGE_CURVE('',#183,#184,#151,.T.);
#226=EDGE_CURVE('',#184,#183,#152,.T.);
#227=EDGE_CURVE('',#184,#185,#101,.T.);
#228=EDGE_CURVE('',#185,#185,#153,.T.);
#229=EDGE_CURVE('',#186,#187,#154,.T.);
#230=EDGE_CURVE('',#187,#186,#155,.T.);
#231=EDGE_CURVE('',#187,#188,#102,.T.);
#232=EDGE_CURVE('',#188,#188,#156,.T.);
#233=EDGE_CURVE('',#189,#190,#157,.T.);
#234=EDGE_CURVE('',#190,#189,#158,.T.);
#235=EDGE_CURVE('',#190,#191,#103,.T.);
#236=EDGE_CURVE('',#191,#191,#159,.T.);
#237=EDGE_CURVE('',#192,#193,#160,.T.);
#238=EDGE_CURVE('',#193,#192,#161,.T.);
#239=EDGE_CURVE('',#193,#194,#104,.T.);
#240=EDGE_CURVE('',#194,#194,#162,.T.);
#241=EDGE_CURVE('',#195,#196,#163,.T.);
#242=EDGE_CURVE('',#196,#195,#164,.T.);
#243=EDGE_CURVE('',#196,#197,#105,.T.);
#244=EDGE_CURVE('',#197,#197,#165,.T.);
#245=EDGE_CURVE('',#198,#199,#166,.T.);
#246=EDGE_CURVE('',#199,#198,#167,.T.);
#247=EDGE_CURVE('',#199,#200,#106,.T.);
#248=EDGE_CURVE('',#200,#200,#168,.T.);
#249=EDGE_CURVE('',#201,#202,#169,.T.);
#250=EDGE_CURVE('',#202,#201,#170,.T.);
#251=EDGE_CURVE('',#202,#203,#107,.T.);
#252=EDGE_CURVE('',#203,#203,#171,.T.);
#253=EDGE_CURVE('',#204,#205,#172,.T.);
#254=EDGE_CURVE('',#205,#204,#173,.T.);
#255=EDGE_CURVE('',#205,#206,#108,.T.);
#256=EDGE_CURVE('',#206,#206,#174,.T.);
#257=EDGE_CURVE('',#207,#207,#175,.T.);
#258=EDGE_CURVE('',#207,#208,#109,.T.);
#259=EDGE_CURVE('',#208,#208,#176,.T.);
#260=EDGE_CURVE('',#209,#210,#110,.T.);
#261=EDGE_CURVE('',#210,#211,#111,.T.);
#262=EDGE_CURVE('',#211,#212,#112,.T.);
#263=EDGE_CURVE('',#212,#209,#113,.T.);
#264=EDGE_CURVE('',#213,#210,#114,.T.);
#265=EDGE_CURVE('',#214,#213,#115,.T.);
#266=EDGE_CURVE('',#214,#211,#116,.T.);
#267=EDGE_CURVE('',#215,#214,#117,.T.);
#268=EDGE_CURVE('',#215,#212,#118,.T.);
#269=EDGE_CURVE('',#216,#215,#119,.T.);
#270=EDGE_CURVE('',#209,#216,#120,.T.);
#271=EDGE_CURVE('',#213,#216,#121,.T.);
#272=ORIENTED_EDGE('',*,*,#217,.F.);
#273=ORIENTED_EDGE('',*,*,#218,.F.);
#274=ORIENTED_EDGE('',*,*,#219,.T.);
#275=ORIENTED_EDGE('',*,*,#220,.F.);
#276=ORIENTED_EDGE('',*,*,#219,.F.);
#277=ORIENTED_EDGE('',*,*,#221,.F.);
#278=ORIENTED_EDGE('',*,*,#222,.F.);
#279=ORIENTED_EDGE('',*,*,#223,.T.);
#280=ORIENTED_EDGE('',*,*,#224,.F.);
#281=ORIENTED_EDGE('',*,*,#223,.F.);
#282=ORIENTED_EDGE('',*,*,#225,.F.);
#283=ORIENTED_EDGE('',*,*,#226,.F.);
#284=ORIENTED_EDGE('',*,*,#227,.T.);
#285=ORIENTED_EDGE('',*,*,#228,.F.);
#286=ORIENTED_EDGE('',*,*,#227,.F.);
#287=ORIENTED_EDGE('',*,*,#229,.F.);
#288=ORIENTED_EDGE('',*,*,#230,.F.);
#289=ORIENTED_EDGE('',*,*,#231,.T.);
#290=ORIENTED_EDGE('',*,*,#232,.F.);
#291=ORIENTED_EDGE('',*,*,#231,.F.);
#292=ORIENTED_EDGE('',*,*,#233,.F.);
#293=ORIENTED_EDGE('',*,*,#234,.F.);
#294=ORIENTED_EDGE('',*,*,#235,.T.);
#295=ORIENTED_EDGE('',*,*,#236,.F.);
#296=ORIENTED_EDGE('',*,*,#235,.F.);
#297=ORIENTED_EDGE('',*,*,#237,.F.);
#298=ORIENTED_EDGE('',*,*,#238,.F.);
#299=ORIENTED_EDGE('',*,*,#239,.T.);
#300=ORIENTED_EDGE('',*,*,#240,.F.);
#301=ORIENTED_EDGE('',*,*,#239,.F.);
#302=ORIENTED_EDGE('',*,*,#241,.F.);
#303=ORIENTED_EDGE('',*,*,#242,.F.);
#304=ORIENTED_EDGE('',*,*,#243,.T.);
#305=ORIENTED_EDGE('',*,*,#244,.F.);
#306=ORIENTED_EDGE('',*,*,#243,.F.);
#307=ORIENTED_EDGE('',*,*,#245,.F.);
#308=ORIENTED_EDGE('',*,*,#246,.F.);
#309=ORIENTED_EDGE('',*,*,#247,.T.);
#310=ORIENTED_EDGE('',*,*,#248,.F.);
#311=ORIENTED_EDGE('',*,*,#247,.F.);
#312=ORIENTED_EDGE('',*,*,#249,.F.);
#313=ORIENTED_EDGE('',*,*,#250,.F.);
#314=ORIENTED_EDGE('',*,*,#251,.T.);
#315=ORIENTED_EDGE('',*,*,#252,.F.);
#316=ORIENTED_EDGE('',*,*,#251,.F.);
#317=ORIENTED_EDGE('',*,*,#253,.F.);
#318=ORIENTED_EDGE('',*,*,#254,.F.);
#319=ORIENTED_EDGE('',*,*,#255,.T.);
#320=ORIENTED_EDGE('',*,*,#256,.F.);
#321=ORIENTED_EDGE('',*,*,#255,.F.);
#322=ORIENTED_EDGE('',*,*,#257,.F.);
#323=ORIENTED_EDGE('',*,*,#258,.T.);
#324=ORIENTED_EDGE('',*,*,#259,.F.);
#325=ORIENTED_EDGE('',*,*,#258,.F.);
#326=ORIENTED_EDGE('',*,*,#260,.T.);
#327=ORIENTED_EDGE('',*,*,#261,.T.);
#328=ORIENTED_EDGE('',*,*,#262,.T.);
#329=ORIENTED_EDGE('',*,*,#263,.T.);
#330=ORIENTED_EDGE('',*,*,#220,.T.);
#331=ORIENTED_EDGE('',*,*,#224,.T.);
#332=ORIENTED_EDGE('',*,*,#228,.T.);
#333=ORIENTED_EDGE('',*,*,#232,.T.);
#334=ORIENTED_EDGE('',*,*,#236,.T.);
#335=ORIENTED_EDGE('',*,*,#240,.T.);
#336=ORIENTED_EDGE('',*,*,#244,.T.);
#337=ORIENTED_EDGE('',*,*,#248,.T.);
#338=ORIENTED_EDGE('',*,*,#252,.T.);
#339=ORIENTED_EDGE('',*,*,#256,.T.);
#340=ORIENTED_EDGE('',*,*,#259,.T.);
#341=ORIENTED_EDGE('',*,*,#264,.F.);
#342=ORIENTED_EDGE('',*,*,#265,.F.);
#343=ORIENTED_EDGE('',*,*,#266,.T.);
#344=ORIENTED_EDGE('',*,*,#261,.F.);
#345=ORIENTED_EDGE('',*,*,#266,.F.);
#346=ORIENTED_EDGE('',*,*,#267,.F.);
#347=ORIENTED_EDGE('',*,*,#268,.T.);
#348=ORIENTED_EDGE('',*,*,#262,.F.);
#349=ORIENTED_EDGE('',*,*,#268,.F.);
#350=ORIENTED_EDGE('',*,*,#269,.F.);
#351=ORIENTED_EDGE('',*,*,#270,.F.);
#352=ORIENTED_EDGE('',*,*,#263,.F.);
#353=ORIENTED_EDGE('',*,*,#270,.T.);
#354=ORIENTED_EDGE('',*,*,#271,.F.);
#355=ORIENTED_EDGE('',*,*,#264,.T.);
#356=ORIENTED_EDGE('',*,*,#260,.F.);
#357=ORIENTED_EDGE('',*,*,#271,.T.);
#358=ORIENTED_EDGE('',*,*,#269,.T.);
#359=ORIENTED_EDGE('',*,*,#267,.T.);
#360=ORIENTED_EDGE('',*,*,#265,.T.);
#361=ORIENTED_EDGE('',*,*,#217,.T.);
#362=ORIENTED_EDGE('',*,*,#218,.T.);
#363=ORIENTED_EDGE('',*,*,#221,.T.);
#364=ORIENTED_EDGE('',*,*,#222,.T.);
#365=ORIENTED_EDGE('',*,*,#225,.T.);
#366=ORIENTED_EDGE('',*,*,#226,.T.);
#367=ORIENTED_EDGE('',*,*,#229,.T.);
#368=ORIENTED_EDGE('',*,*,#230,.T.);
#369=ORIENTED_EDGE('',*,*,#233,.T.);
#370=ORIENTED_EDGE('',*,*,#234,.T.);
#371=ORIENTED_EDGE('',*,*,#237,.T.);
#372=ORIENTED_EDGE('',*,*,#238,.T.);
#373=ORIENTED_EDGE('',*,*,#241,.T.);
#374=ORIENTED_EDGE('',*,*,#242,.T.);
#375=ORIENTED_EDGE('',*,*,#245,.T.);
#376=ORIENTED_EDGE('',*,*,#246,.T.);
#377=ORIENTED_EDGE('',*,*,#249,.T.);
#378=ORIENTED_EDGE('',*,*,#250,.T.);
#379=ORIENTED_EDGE('',*,*,#253,.T.);
#380=ORIENTED_EDGE('',*,*,#254,.T.);
#381=ORIENTED_EDGE('',*,*,#257,.T.);
#382=CYLINDRICAL_SURFACE('',#424,3.);
#383=CYLINDRICAL_SURFACE('',#428,3.);
#384=CYLINDRICAL_SURFACE('',#432,3.15);
#385=CYLINDRICAL_SURFACE('',#436,3.15);
#386=CYLINDRICAL_SURFACE('',#440,3.15);
#387=CYLINDRICAL_SURFACE('',#444,3.15);
#388=CYLINDRICAL_SURFACE('',#448,2.4585);
#389=CYLINDRICAL_SURFACE('',#452,2.4585);
#390=CYLINDRICAL_SURFACE('',#456,2.4585);
#391=CYLINDRICAL_SURFACE('',#460,2.4585);
#392=CYLINDRICAL_SURFACE('',#464,18.55);
#393=ADVANCED_FACE('',(#43),#382,.F.);
#394=ADVANCED_FACE('',(#44),#383,.F.);
#395=ADVANCED_FACE('',(#45),#384,.F.);
#396=ADVANCED_FACE('',(#46),#385,.F.);
#397=ADVANCED_FACE('',(#47),#386,.F.);
#398=ADVANCED_FACE('',(#48),#387,.F.);
#399=ADVANCED_FACE('',(#49),#388,.F.);
#400=ADVANCED_FACE('',(#50),#389,.F.);
#401=ADVANCED_FACE('',(#51),#390,.F.);
#402=ADVANCED_FACE('',(#52),#391,.F.);
#403=ADVANCED_FACE('',(#53),#392,.F.);
#404=ADVANCED_FACE('',(#54,#15,#16,#17,#18,#19,#20,#21,#22,#23,#24,#25),
#37,.T.);
#405=ADVANCED_FACE('',(#55),#38,.T.);
#406=ADVANCED_FACE('',(#56),#39,.T.);
#407=ADVANCED_FACE('',(#57),#40,.T.);
#408=ADVANCED_FACE('',(#58),#41,.T.);
#409=ADVANCED_FACE('',(#59,#26,#27,#28,#29,#30,#31,#32,#33,#34,#35,#36),
#42,.T.);
#410=CLOSED_SHELL('',(#393,#394,#395,#396,#397,#398,#399,#400,#401,#402,
#403,#404,#405,#406,#407,#408,#409));
#411=DERIVED_UNIT_ELEMENT(#413,1.);
#412=DERIVED_UNIT_ELEMENT(#714,3.);
#413=(
MASS_UNIT()
NAMED_UNIT(*)
SI_UNIT($,.GRAM.)
);
#414=DERIVED_UNIT((#411,#412));
#415=MEASURE_REPRESENTATION_ITEM('density measure',
POSITIVE_RATIO_MEASURE(7.85),#414);
#416=PROPERTY_DEFINITION_REPRESENTATION(#421,#418);
#417=PROPERTY_DEFINITION_REPRESENTATION(#422,#419);
#418=REPRESENTATION('material name',(#420),#711);
#419=REPRESENTATION('density',(#415),#711);
#420=DESCRIPTIVE_REPRESENTATION_ITEM('CRS','CRS');
#421=PROPERTY_DEFINITION('material property','material name',#721);
#422=PROPERTY_DEFINITION('material property','density of part',#721);
#423=AXIS2_PLACEMENT_3D('placement',#596,#473,#474);
#424=AXIS2_PLACEMENT_3D('',#597,#475,#476);
#425=AXIS2_PLACEMENT_3D('',#600,#477,#478);
#426=AXIS2_PLACEMENT_3D('',#601,#479,#480);
#427=AXIS2_PLACEMENT_3D('',#604,#482,#483);
#428=AXIS2_PLACEMENT_3D('',#605,#484,#485);
#429=AXIS2_PLACEMENT_3D('',#608,#486,#487);
#430=AXIS2_PLACEMENT_3D('',#609,#488,#489);
#431=AXIS2_PLACEMENT_3D('',#612,#491,#492);
#432=AXIS2_PLACEMENT_3D('',#613,#493,#494);
#433=AXIS2_PLACEMENT_3D('',#616,#495,#496);
#434=AXIS2_PLACEMENT_3D('',#617,#497,#498);
#435=AXIS2_PLACEMENT_3D('',#620,#500,#501);
#436=AXIS2_PLACEMENT_3D('',#621,#502,#503);
#437=AXIS2_PLACEMENT_3D('',#624,#504,#505);
#438=AXIS2_PLACEMENT_3D('',#625,#506,#507);
#439=AXIS2_PLACEMENT_3D('',#628,#509,#510);
#440=AXIS2_PLACEMENT_3D('',#629,#511,#512);
#441=AXIS2_PLACEMENT_3D('',#632,#513,#514);
#442=AXIS2_PLACEMENT_3D('',#633,#515,#516);
#443=AXIS2_PLACEMENT_3D('',#636,#518,#519);
#444=AXIS2_PLACEMENT_3D('',#637,#520,#521);
#445=AXIS2_PLACEMENT_3D('',#640,#522,#523);
#446=AXIS2_PLACEMENT_3D('',#641,#524,#525);
#447=AXIS2_PLACEMENT_3D('',#644,#527,#528);
#448=AXIS2_PLACEMENT_3D('',#645,#529,#530);
#449=AXIS2_PLACEMENT_3D('',#648,#531,#532);
#450=AXIS2_PLACEMENT_3D('',#649,#533,#534);
#451=AXIS2_PLACEMENT_3D('',#652,#536,#537);
#452=AXIS2_PLACEMENT_3D('',#653,#538,#539);
#453=AXIS2_PLACEMENT_3D('',#656,#540,#541);
#454=AXIS2_PLACEMENT_3D('',#657,#542,#543);
#455=AXIS2_PLACEMENT_3D('',#660,#545,#546);
#456=AXIS2_PLACEMENT_3D('',#661,#547,#548);
#457=AXIS2_PLACEMENT_3D('',#664,#549,#550);
#458=AXIS2_PLACEMENT_3D('',#665,#551,#552);
#459=AXIS2_PLACEMENT_3D('',#668,#554,#555);
#460=AXIS2_PLACEMENT_3D('',#669,#556,#557);
#461=AXIS2_PLACEMENT_3D('',#672,#558,#559);
#462=AXIS2_PLACEMENT_3D('',#673,#560,#561);
#463=AXIS2_PLACEMENT_3D('',#676,#563,#564);
#464=AXIS2_PLACEMENT_3D('',#677,#565,#566);
#465=AXIS2_PLACEMENT_3D('',#679,#567,#568);
#466=AXIS2_PLACEMENT_3D('',#682,#570,#571);
#467=AXIS2_PLACEMENT_3D('',#683,#572,#573);
#468=AXIS2_PLACEMENT_3D('',#692,#578,#579);
#469=AXIS2_PLACEMENT_3D('',#698,#583,#584);
#470=AXIS2_PLACEMENT_3D('',#702,#587,#588);
#471=AXIS2_PLACEMENT_3D('',#706,#591,#592);
#472=AXIS2_PLACEMENT_3D('',#708,#594,#595);
#473=DIRECTION('axis',(0.,0.,1.));
#474=DIRECTION('refdir',(1.,0.,0.));
#475=DIRECTION('center_axis',(0.,0.,1.));
#476=DIRECTION('ref_axis',(1.,0.,0.));
#477=DIRECTION('center_axis',(0.,0.,-1.));
#478=DIRECTION('ref_axis',(1.,0.,0.));
#479=DIRECTION('center_axis',(0.,0.,-1.));
#480=DIRECTION('ref_axis',(1.,0.,0.));
#481=DIRECTION('',(0.,0.,-1.));
#482=DIRECTION('center_axis',(0.,0.,1.));
#483=DIRECTION('ref_axis',(1.,0.,0.));
#484=DIRECTION('center_axis',(0.,0.,1.));
#485=DIRECTION('ref_axis',(1.,0.,0.));
#486=DIRECTION('center_axis',(0.,0.,-1.));
#487=DIRECTION('ref_axis',(1.,0.,0.));
#488=DIRECTION('center_axis',(0.,0.,-1.));
#489=DIRECTION('ref_axis',(1.,0.,0.));
#490=DIRECTION('',(0.,0.,-1.));
#491=DIRECTION('center_axis',(0.,0.,1.));
#492=DIRECTION('ref_axis',(1.,0.,0.));
#493=DIRECTION('center_axis',(0.,0.,1.));
#494=DIRECTION('ref_axis',(1.,0.,0.));
#495=DIRECTION('center_axis',(0.,0.,-1.));
#496=DIRECTION('ref_axis',(1.,0.,0.));
#497=DIRECTION('center_axis',(0.,0.,-1.));
#498=DIRECTION('ref_axis',(1.,0.,0.));
#499=DIRECTION('',(0.,0.,-1.));
#500=DIRECTION('center_axis',(0.,0.,1.));
#501=DIRECTION('ref_axis',(1.,0.,0.));
#502=DIRECTION('center_axis',(0.,0.,1.));
#503=DIRECTION('ref_axis',(1.,0.,0.));
#504=DIRECTION('center_axis',(0.,0.,-1.));
#505=DIRECTION('ref_axis',(1.,0.,0.));
#506=DIRECTION('center_axis',(0.,0.,-1.));
#507=DIRECTION('ref_axis',(1.,0.,0.));
#508=DIRECTION('',(0.,0.,-1.));
#509=DIRECTION('center_axis',(0.,0.,1.));
#510=DIRECTION('ref_axis',(1.,0.,0.));
#511=DIRECTION('center_axis',(0.,0.,1.));
#512=DIRECTION('ref_axis',(1.,0.,0.));
#513=DIRECTION('center_axis',(0.,0.,-1.));
#514=DIRECTION('ref_axis',(1.,0.,0.));
#515=DIRECTION('center_axis',(0.,0.,-1.));
#516=DIRECTION('ref_axis',(1.,0.,0.));
#517=DIRECTION('',(0.,0.,-1.));
#518=DIRECTION('center_axis',(0.,0.,1.));
#519=DIRECTION('ref_axis',(1.,0.,0.));
#520=DIRECTION('center_axis',(0.,0.,1.));
#521=DIRECTION('ref_axis',(1.,0.,0.));
#522=DIRECTION('center_axis',(0.,0.,-1.));
#523=DIRECTION('ref_axis',(1.,0.,0.));
#524=DIRECTION('center_axis',(0.,0.,-1.));
#525=DIRECTION('ref_axis',(1.,0.,0.));
#526=DIRECTION('',(0.,0.,-1.));
#527=DIRECTION('center_axis',(0.,0.,1.));
#528=DIRECTION('ref_axis',(1.,0.,0.));
#529=DIRECTION('center_axis',(0.,0.,1.));
#530=DIRECTION('ref_axis',(1.,0.,0.));
#531=DIRECTION('center_axis',(0.,0.,-1.));
#532=DIRECTION('ref_axis',(1.,0.,0.));
#533=DIRECTION('center_axis',(0.,0.,-1.));
#534=DIRECTION('ref_axis',(1.,0.,0.));
#535=DIRECTION('',(0.,0.,-1.));
#536=DIRECTION('center_axis',(0.,0.,1.));
#537=DIRECTION('ref_axis',(1.,0.,0.));
#538=DIRECTION('center_axis',(0.,0.,1.));
#539=DIRECTION('ref_axis',(1.,0.,0.));
#540=DIRECTION('center_axis',(0.,0.,-1.));
#541=DIRECTION('ref_axis',(1.,0.,0.));
#542=DIRECTION('center_axis',(0.,0.,-1.));
#543=DIRECTION('ref_axis',(1.,0.,0.));
#544=DIRECTION('',(0.,0.,-1.));
#545=DIRECTION('center_axis',(0.,0.,1.));
#546=DIRECTION('ref_axis',(1.,0.,0.));
#547=DIRECTION('center_axis',(0.,0.,1.));
#548=DIRECTION('ref_axis',(1.,0.,0.));
#549=DIRECTION('center_axis',(0.,0.,-1.));
#550=DIRECTION('ref_axis',(1.,0.,0.));
#551=DIRECTION('center_axis',(0.,0.,-1.));
#552=DIRECTION('ref_axis',(1.,0.,0.));
#553=DIRECTION('',(0.,0.,-1.));
#554=DIRECTION('center_axis',(0.,0.,1.));
#555=DIRECTION('ref_axis',(1.,0.,0.));
#556=DIRECTION('center_axis',(0.,0.,1.));
#557=DIRECTION('ref_axis',(1.,0.,0.));
#558=DIRECTION('center_axis',(0.,0.,-1.));
#559=DIRECTION('ref_axis',(1.,0.,0.));
#560=DIRECTION('center_axis',(0.,0.,-1.));
#561=DIRECTION('ref_axis',(1.,0.,0.));
#562=DIRECTION('',(0.,0.,-1.));
#563=DIRECTION('center_axis',(0.,0.,1.));
#564=DIRECTION('ref_axis',(1.,0.,0.));
#565=DIRECTION('center_axis',(0.,0.,-1.));
#566=DIRECTION('ref_axis',(-1.,0.,0.));
#567=DIRECTION('center_axis',(0.,0.,-1.));
#568=DIRECTION('ref_axis',(-1.,0.,0.));
#569=DIRECTION('',(0.,0.,-1.));
#570=DIRECTION('center_axis',(0.,0.,1.));
#571=DIRECTION('ref_axis',(-1.,0.,0.));
#572=DIRECTION('center_axis',(0.,0.,-1.));
#573=DIRECTION('ref_axis',(-1.,0.,0.));
#574=DIRECTION('',(1.,0.,0.));
#575=DIRECTION('',(0.,-1.,0.));
#576=DIRECTION('',(-1.,-4.93432455388958E-17,0.));
#577=DIRECTION('',(-1.26882631385732E-16,1.,0.));
#578=DIRECTION('center_axis',(1.,0.,0.));
#579=DIRECTION('ref_axis',(0.,1.,0.));
#580=DIRECTION('',(0.,0.,-1.));
#581=DIRECTION('',(0.,1.,0.));
#582=DIRECTION('',(0.,0.,-1.));
#583=DIRECTION('center_axis',(4.93432455388958E-17,-1.,0.));
#584=DIRECTION('ref_axis',(1.,4.93432455388958E-17,0.));
#585=DIRECTION('',(1.,4.93432455388958E-17,0.));
#586=DIRECTION('',(0.,0.,-1.));
#587=DIRECTION('center_axis',(-1.,-1.26882631385732E-16,0.));
#588=DIRECTION('ref_axis',(1.26882631385732E-16,-1.,0.));
#589=DIRECTION('',(1.26882631385732E-16,-1.,0.));
#590=DIRECTION('',(0.,0.,1.));
#591=DIRECTION('center_axis',(0.,1.,0.));
#592=DIRECTION('ref_axis',(-1.,0.,0.));
#593=DIRECTION('',(-1.,0.,0.));
#594=DIRECTION('center_axis',(0.,0.,1.));
#595=DIRECTION('ref_axis',(1.,0.,0.));
#596=CARTESIAN_POINT('',(0.,0.,0.));
#597=CARTESIAN_POINT('Origin',(-38.,0.,-108.647285183732));
#598=CARTESIAN_POINT('',(-35.,0.,6.));
#599=CARTESIAN_POINT('',(-41.,-3.67394039744206E-16,6.));
#600=CARTESIAN_POINT('Origin',(-38.,0.,6.));
#601=CARTESIAN_POINT('Origin',(-38.,0.,6.));
#602=CARTESIAN_POINT('',(-41.,-3.67394039744206E-16,-6.));
#603=CARTESIAN_POINT('',(-41.,-3.67394039744206E-16,-108.647285183732));
#604=CARTESIAN_POINT('Origin',(-38.,0.,-6.));
#605=CARTESIAN_POINT('Origin',(38.,0.,-108.647285183732));
#606=CARTESIAN_POINT('',(41.,0.,6.));
#607=CARTESIAN_POINT('',(35.,-3.67394039744206E-16,6.));
#608=CARTESIAN_POINT('Origin',(38.,0.,6.));
#609=CARTESIAN_POINT('Origin',(38.,0.,6.));
#610=CARTESIAN_POINT('',(35.,-3.67394039744206E-16,-6.));
#611=CARTESIAN_POINT('',(35.,-3.67394039744206E-16,-108.647285183732));
#612=CARTESIAN_POINT('Origin',(38.,0.,-6.));
#613=CARTESIAN_POINT('Origin',(38.,-25.,-108.647285183732));
#614=CARTESIAN_POINT('',(41.15,-25.,6.));
#615=CARTESIAN_POINT('',(34.85,-25.,6.));
#616=CARTESIAN_POINT('Origin',(38.,-25.,6.));
#617=CARTESIAN_POINT('Origin',(38.,-25.,6.));
#618=CARTESIAN_POINT('',(34.85,-25.,-6.));
#619=CARTESIAN_POINT('',(34.85,-25.,-108.647285183732));
#620=CARTESIAN_POINT('Origin',(38.,-25.,-6.));
#621=CARTESIAN_POINT('Origin',(-38.,25.,-108.647285183732));
#622=CARTESIAN_POINT('',(-34.85,25.,6.));
#623=CARTESIAN_POINT('',(-41.15,25.,6.));
#624=CARTESIAN_POINT('Origin',(-38.,25.,6.));
#625=CARTESIAN_POINT('Origin',(-38.,25.,6.));
#626=CARTESIAN_POINT('',(-41.15,25.,-6.));
#627=CARTESIAN_POINT('',(-41.15,25.,-108.647285183732));
#628=CARTESIAN_POINT('Origin',(-38.,25.,-6.));
#629=CARTESIAN_POINT('Origin',(38.,25.,-108.647285183732));
#630=CARTESIAN_POINT('',(41.15,25.,6.));
#631=CARTESIAN_POINT('',(34.85,25.,6.));
#632=CARTESIAN_POINT('Origin',(38.,25.,6.));
#633=CARTESIAN_POINT('Origin',(38.,25.,6.));
#634=CARTESIAN_POINT('',(34.85,25.,-6.));
#635=CARTESIAN_POINT('',(34.85,25.,-108.647285183732));
#636=CARTESIAN_POINT('Origin',(38.,25.,-6.));
#637=CARTESIAN_POINT('Origin',(-38.,-25.,-108.647285183732));
#638=CARTESIAN_POINT('',(-34.85,-25.,6.));
#639=CARTESIAN_POINT('',(-41.15,-25.,6.));
#640=CARTESIAN_POINT('Origin',(-38.,-25.,6.));
#641=CARTESIAN_POINT('Origin',(-38.,-25.,6.));
#642=CARTESIAN_POINT('',(-41.15,-25.,-6.));
#643=CARTESIAN_POINT('',(-41.15,-25.,-108.647285183732));
#644=CARTESIAN_POINT('Origin',(-38.,-25.,-6.));
#645=CARTESIAN_POINT('Origin',(25.,-25.,-108.647285183732));
#646=CARTESIAN_POINT('',(27.4585,-25.,6.));
#647=CARTESIAN_POINT('',(22.5415,-25.,6.));
#648=CARTESIAN_POINT('Origin',(25.,-25.,6.));
#649=CARTESIAN_POINT('Origin',(25.,-25.,6.));
#650=CARTESIAN_POINT('',(22.5415,-25.,-6.));
#651=CARTESIAN_POINT('',(22.5415,-25.,-108.647285183732));
#652=CARTESIAN_POINT('Origin',(25.,-25.,-6.));
#653=CARTESIAN_POINT('Origin',(-25.,25.,-108.647285183732));
#654=CARTESIAN_POINT('',(-22.5415,25.,6.));
#655=CARTESIAN_POINT('',(-27.4585,25.,6.));
#656=CARTESIAN_POINT('Origin',(-25.,25.,6.));
#657=CARTESIAN_POINT('Origin',(-25.,25.,6.));
#658=CARTESIAN_POINT('',(-27.4585,25.,-6.));
#659=CARTESIAN_POINT('',(-27.4585,25.,-108.647285183732));
#660=CARTESIAN_POINT('Origin',(-25.,25.,-6.));
#661=CARTESIAN_POINT('Origin',(25.,25.,-108.647285183732));
#662=CARTESIAN_POINT('',(27.4585,25.,6.));
#663=CARTESIAN_POINT('',(22.5415,25.,6.));
#664=CARTESIAN_POINT('Origin',(25.,25.,6.));
#665=CARTESIAN_POINT('Origin',(25.,25.,6.));
#666=CARTESIAN_POINT('',(22.5415,25.,-6.));
#667=CARTESIAN_POINT('',(22.5415,25.,-108.647285183732));
#668=CARTESIAN_POINT('Origin',(25.,25.,-6.));
#669=CARTESIAN_POINT('Origin',(-25.,-25.,-108.647285183732));
#670=CARTESIAN_POINT('',(-22.5415,-25.,6.));
#671=CARTESIAN_POINT('',(-27.4585,-25.,6.));
#672=CARTESIAN_POINT('Origin',(-25.,-25.,6.));
#673=CARTESIAN_POINT('Origin',(-25.,-25.,6.));
#674=CARTESIAN_POINT('',(-27.4585,-25.,-6.));
#675=CARTESIAN_POINT('',(-27.4585,-25.,-108.647285183732));
#676=CARTESIAN_POINT('Origin',(-25.,-25.,-6.));
#677=CARTESIAN_POINT('Origin',(0.,0.,6.));
#678=CARTESIAN_POINT('',(18.55,2.27171981241834E-15,6.));
#679=CARTESIAN_POINT('Origin',(0.,0.,6.));
#680=CARTESIAN_POINT('',(18.55,2.27171981241834E-15,-6.));
#681=CARTESIAN_POINT('',(18.55,-2.27171981241834E-15,6.));
#682=CARTESIAN_POINT('Origin',(0.,0.,-6.));
#683=CARTESIAN_POINT('Origin',(0.,4.44089209850063E-15,-6.));
#684=CARTESIAN_POINT('',(-45.,35.,-6.));
#685=CARTESIAN_POINT('',(45.,35.,-6.));
#686=CARTESIAN_POINT('',(-45.,35.,-6.));
#687=CARTESIAN_POINT('',(45.,-35.,-6.));
#688=CARTESIAN_POINT('',(45.,35.,-6.));
#689=CARTESIAN_POINT('',(-45.,-35.,-6.));
#690=CARTESIAN_POINT('',(45.,-35.,-6.));
#691=CARTESIAN_POINT('',(-45.,-35.,-6.));
#692=CARTESIAN_POINT('Origin',(45.,-35.,0.));
#693=CARTESIAN_POINT('',(45.,35.,6.));
#694=CARTESIAN_POINT('',(45.,35.,0.));
#695=CARTESIAN_POINT('',(45.,-35.,6.));
#696=CARTESIAN_POINT('',(45.,35.,6.));
#697=CARTESIAN_POINT('',(45.,-35.,0.));
#698=CARTESIAN_POINT('Origin',(-45.,-35.,0.));
#699=CARTESIAN_POINT('',(-45.,-35.,6.));
#700=CARTESIAN_POINT('',(45.,-35.,6.));
#701=CARTESIAN_POINT('',(-45.,-35.,0.));
#702=CARTESIAN_POINT('Origin',(-45.,35.,0.));
#703=CARTESIAN_POINT('',(-45.,35.,6.));
#704=CARTESIAN_POINT('',(-45.,-35.,6.));
#705=CARTESIAN_POINT('',(-45.,35.,0.));
#706=CARTESIAN_POINT('Origin',(45.,35.,0.));
#707=CARTESIAN_POINT('',(-45.,35.,6.));
#708=CARTESIAN_POINT('Origin',(0.,4.44089209850063E-15,6.));
#709=UNCERTAINTY_MEASURE_WITH_UNIT(LENGTH_MEASURE(0.01),#713,
'DISTANCE_ACCURACY_VALUE',
'Maximum model space distance between geometric entities at asserted c
onnectivities');
#710=UNCERTAINTY_MEASURE_WITH_UNIT(LENGTH_MEASURE(0.01),#713,
'DISTANCE_ACCURACY_VALUE',
'Maximum model space distance between geometric entities at asserted c
onnectivities');
#711=(
GEOMETRIC_REPRESENTATION_CONTEXT(3)
GLOBAL_UNCERTAINTY_ASSIGNED_CONTEXT((#709))
GLOBAL_UNIT_ASSIGNED_CONTEXT((#713,#716,#715))
REPRESENTATION_CONTEXT('','3D')
);
#712=(
GEOMETRIC_REPRESENTATION_CONTEXT(3)
GLOBAL_UNCERTAINTY_ASSIGNED_CONTEXT((#710))
GLOBAL_UNIT_ASSIGNED_CONTEXT((#713,#716,#715))
REPRESENTATION_CONTEXT('','3D')
);
#713=(
LENGTH_UNIT()
NAMED_UNIT(*)
SI_UNIT(.MILLI.,.METRE.)
);
#714=(
LENGTH_UNIT()
NAMED_UNIT(*)
SI_UNIT(.CENTI.,.METRE.)
);
#715=(
NAMED_UNIT(*)
SI_UNIT($,.STERADIAN.)
SOLID_ANGLE_UNIT()
);
#716=(
NAMED_UNIT(*)
PLANE_ANGLE_UNIT()
SI_UNIT($,.RADIAN.)
);
#717=SHAPE_DEFINITION_REPRESENTATION(#718,#719);
#718=PRODUCT_DEFINITION_SHAPE('',$,#721);
#719=SHAPE_REPRESENTATION('',(#423),#711);
#720=PRODUCT_DEFINITION_CONTEXT('part definition',#725,'design');
#721=PRODUCT_DEFINITION('CRSF-50','CRSF-50',#722,#720);
#722=PRODUCT_DEFINITION_FORMATION('',$,#727);
#723=PRODUCT_RELATED_PRODUCT_CATEGORY('CRSF-50','CRSF-50',(#727));
#724=APPLICATION_PROTOCOL_DEFINITION('international standard',
'automotive_design',2009,#725);
#725=APPLICATION_CONTEXT(
'Core Data for Automotive Mechanical Design Process');
#726=PRODUCT_CONTEXT('part definition',#725,'mechanical');
#727=PRODUCT('CRSF-50','CRSF-50','FLANGE',(#726));
#728=PRESENTATION_STYLE_ASSIGNMENT((#729));
#729=SURFACE_STYLE_USAGE(.BOTH.,#730);
#730=SURFACE_SIDE_STYLE('',(#731));
#731=SURFACE_STYLE_FILL_AREA(#732);
#732=FILL_AREA_STYLE('',(#733));
#733=FILL_AREA_STYLE_COLOUR('',#734);
#734=COLOUR_RGB('',0.0196078431372549,0.0196078431372549,0.0196078431372549);
ENDSEC;
END-ISO-10303-21;
